Log in

One click and you are in

Login with Facebook Login with Google

Why sign up and log in

Guitar Tabs Explorer
Turbonegro bass tabs for Gimme shelter

Bass tabs

Intro:
G|-------------------------------------------------------|
D|-------------------------------------------------------|
A|-4-4---7-7-7--2-2---7-7-7--0-0--0-0-0--7-7-7-7---------|
E|-----------------------------------------------7-7-7-7-|
Verse:
("Oh a storm is threatening my very life today...")
G|-------------------------|-------------------------|-------------------------|-------------------------|
D|-------------------------|-------------------------|-------------------------|-------------------------|
A|-4-4---------4-4---------|-4-4---------4-4---------|-4-4---------4-4---------|-4-4---------4-4---------|
E|-------2-3-4-------2-3-4-|-------2-3-4-------2-3-4-|-------2-3-4-------2-3-4-|-------2-3-4-------2-3-4-|


Chorus:
("War, Children, It's just a shot away...")
G|-------------------------------------------------------|
D|-------------------------------------------------------|
A|-4-4---7-7-7--2-2---7-7-7--0-0--0-0-0--7-7-7-7---------|
E|-----------------------------------------------7-7-7-7-|

("War, Children, It's just a shot away...")
G|-------------------------------------------------------|
D|-------------------------------------------------------|
A|-4-4---7-7-7--2-2---7-7-7--0-0--0-0-0--7-7-7-7---------|
E|-----------------------------------------------7-7-7-7-|


Verse:
                           ("I see the fire sweepin' our very street today...")
G|-------------------------|-------------------------|-------------------------|-------------------------|
D|-------------------------|-------------------------|-------------------------|-------------------------|
A|-4-4---------4-4---------|-4-4---------4-4---------|-4-4---------4-4---------|-4-4---------4-4---------|
E|-------2-3-4-------2-3-4-|-------2-3-4-------2-3-4-|-------2-3-4-------2-3-4-|-------2-3-4-------2-3-4-|

G|-------------------------|-------------------------|
D|-------------------------|-------------------------|
A|-4-4---------4-4---------|-4-4---------4-4---------|
E|-------2-3-4-------2-3-4-|-------2-3-4-------2-3-4-|

Chorus:
("War, Children, It's just a shot away...")
G|-------------------------------------------------------|
D|-------------------------------------------------------|
A|-4-4---7-7-7--2-2---7-7-7--0-0--0-0-0--7-7-7-7---------|
E|-----------------------------------------------7-7-7-7-|

("War, Children, It's just a shot away...")
G|-------------------------------------------------------|
D|-------------------------------------------------------|
A|-4-4---7-7-7--2-2---7-7-7--0-0--0-0-0--7-7-7-7---------|
E|-----------------------------------------------7-7-7-7-|


Solo:
G|-------------------------|-------------------------|-------------------------|-------------------------|
D|-------------------------|-------------------------|-------------------------|-------------------------|
A|-4-4---------4-4---------|-4-4---------4-4---------|-4-4---------4-4---------|-4-4---------4-4---------|
E|-------2-3-4-------2-3-4-|-------2-3-4-------2-3-4-|-------2-3-4-------2-3-4-|-------2-3-4-------2-3-4-|

G|-------------------------------------------------------|
D|-------------------------------------------------------|
A|-4-4---7-7-7--2-2---7-7-7--0-0--0-0-0--7-7-7-7---------|
E|-----------------------------------------------7-7-7-7-|

G|-------------------------------------------------------|
D|-------------------------------------------------------|
A|-4-4---7-7-7--2-2---7-7-7--0-0--0-0-0--7-7-7-7---------|
E|-----------------------------------------------7-7-7-7-|

G|-------------------------------------------------------|
D|-------------------------------------------------------|
A|-4-4---7-7-7--2-2---7-7-7--0-0--0-0-0--7-7-7-7---------|
E|-----------------------------------------------7-7-7-7-|


Bridge:
("Rape, Murder, It's just a shot away, It's just a shot away")
G|-------------------------------------------------------|
D|-------------------------------------------------------|
A|-4-4---7-7-7--2-2---7-7-7--0-0--0-0-0--7-7-7-7---------|
E|-----------------------------------------------7-7-7-7-|

("Rape, Murder, It's just a shot away, It's just a shot away")
G|-------------------------------------------------------|
D|-------------------------------------------------------|
A|-4-4---7-7-7--2-2---7-7-7--0-0--0-0-0--7-7-7-7---------|
E|-----------------------------------------------7-7-7-7-|

("Rape, Murder, It's just a shot away, It's just a shot away")
G|-------------------------------------------------------|
D|-------------------------------------------------------|
A|-4-4---7-7-7--2-2---7-7-7--0-0--0-0-0--7-7-7-7---------|
E|-----------------------------------------------7-7-7-7-|


Verse:
                           ("The floods is threatenin' my very life today...")
G|-------------------------|-------------------------|-------------------------|-------------------------|
D|-------------------------|-------------------------|-------------------------|-------------------------|
A|-4-4---------4-4---------|-4-4---------4-4---------|-4-4---------4-4---------|-4-4---------4-4---------|
E|-------2-3-4-------2-3-4-|-------2-3-4-------2-3-4-|-------2-3-4-------2-3-4-|-------2-3-4-------2-3-4-|

G|-------------------------|-------------------------|
D|-------------------------|-------------------------|
A|-4-4---------4-4---------|-4-4---------4-4---------|
E|-------2-3-4-------2-3-4-|-------2-3-4-------2-3-4-|


Chorus/Outro:
("War, Children, It's just a shot away...")
G|-------------------------------------------------------|
D|-------------------------------------------------------|
A|-4-4---7-7-7--2-2---7-7-7--0-0--0-0-0--7-7-7-7---------|
E|-----------------------------------------------7-7-7-7-|

("It's just a shot away, It's just a shot away...")
G|-------------------------------------------------------|
D|-------------------------------------------------------|
A|-4-4---7-7-7--2-2---7-7-7--0-0--0-0-0--7-7-7-7---------|
E|-----------------------------------------------7-7-7-7-|

("Love, Sister, It's just a piss away...")
G|-------------------------------------------------------|
D|-------------------------------------------------------|
A|-4-4---7-7-7--2-2---7-7-7--0-0--0-0-0--7-7-7-7---------|
E|-----------------------------------------------7-7-7-7-|

("It's just a piss away, It's just a piss away...")
G|-------------------------------------------------------|
D|-------------------------------------------------------|
A|-4-4---7-7-7--2-2---7-7-7--0-0--0-0-0--7-7-7-7---------|
E|-----------------------------------------------7-7-7-7-|

G|-------------------------------------------------------|
D|-------------------------------------------------------|
A|-4-4---7-7-7--2-2---7-7-7--0-0--0-0-0--7-7-7-7---------|
E|-----------------------------------------------7-7-7-7-|

G|-------------------------------------------------------|
D|-------------------------------------------------------|
A|-4-4---7-7-7--2-2---7-7-7--0-0--0-0-0--7-7-7-7---------|
E|-----------------------------------------------7-7-7-7-|

G|-------------------------------------------------------|
D|-------------------------------------------------------|
A|-4-4---7-7-7--2-2---7-7-7--0-0--0-0-0--7-7-7-7---------|
E|-----------------------------------------------7-7-7-7-|

G|-------------------------------------------------------|
D|-------------------------------------------------------|
A|-4-4---7-7-7--2-2---7-7-7--0-0--0-0-0--7-7-7-7---------|

Almost there ...

Sign in to get your own page with links to favourite songs and more. You are just one click away...

Login with Facebook Login with Google