Log in

One click and you are in

Login with Facebook Login with Google

Why sign up and log in

Guitar Tabs Explorer
Turbonegro bass tabs for Final warning

Bass tabs with lyrics

Intro:
("This Is My Final Warning")
G|-----------------------------------|
D|-----------------------------------|
A|-2--4------------------------------|
E|-----------------------------------|
Verse:
          ("Owners of cars")         ("Closers of bars")
G|-----------------------------------|-----------------------------------|
D|-----------------------------------|-----------------------------------|
A|-4-4-4-4-4-4-4-4--2-2-2-2--5-5-5-5-|-4-4-4-4-4-4-4-4--2-2-2-2--5-5-5-5-|
E|-----------------------------------|-----------------------------------|

     ("Cross country Stars")   ("This Is My Final Warning")
G|-----------------------------------|-----------------------------------|
D|-----------------------------------|-----------------------------------|
A|-4-4-4-4-4-4-4-4--2-2-2-2--5-5-5-5-|-4---------------------------------|
E|-----------------------------------|-----------------------------------|

        ("Breakers of deals")        ("Stealers of meals")
G|-----------------------------------|-----------------------------------|
D|-----------------------------------|-----------------------------------|
A|-4-4-4-4-4-4-4-4--2-2-2-2--5-5-5-5-|-4-4-4-4-4-4-4-4--2-2-2-2--5-5-5-5-|
E|-----------------------------------|-----------------------------------|

      ("Sealers of seals")   ("This Is My Final Warning")
G|-----------------------------------|-----------------------------------|
D|-----------------------------------|-----------------------------------|
A|-4-4-4-4-4-4-4-4--2-2-2-2--5-5-5-5-|-4---------------------------------|
E|-----------------------------------|-----------------------------------|


Chorus:
("All you squares in the dead zone, Beware in the danger zone")
G|---------------------------------------------------------------------|
D|---------------------------------------------------------------------|
A|-------------------------------5--4-4-4-4-4-4-4-4-4--4-4-4-4-4-4-----|
E|-5-5-5-5-5-5-5-5--5-5-5-5-5-5-------------------------------------2--|

("All you squares in the dead zone, Knock Knock & there's nobody home")
G|---------------------------------------------------------------------|
D|---------------------------------------------------------------------|
A|-------------------------------5--4-4-4-4-4-4-4-4-4--4-4-4-4-4-4-----|
E|-5-5-5-5-5-5-5-5--5-5-5-5-5-5-------------------------------------2--|

("Jump back, jump back, Step Back Step Back")
G|---------------------------------------------------------------------|
D|---------------------------------------------------------------------|
A|-------------------------------5--4-4-4-4-4-4-4-4-4--4-4-4-4-4-4-----|
E|-5-5-5-5-5-5-5-5--5-5-5-5-5-5-------------------------------------2--|

("When you die, you'll be dead, you'll be on your own")
G|---------------------------------------------------------------------|
D|---------------------------------------------------------------------|
A|-------------------------------5--4-4-4-4-4-4-4-4-4--4-4-4-4-4-4-4-4-|
E|-5-5-5-5-5-5-5-5--5-5-5-5-5-5----------------------------------------|

Verse:
  ("I'm gonna make you well-behave")  ("I'm gonna penetrate your cave")
G|-----------------------------------|-----------------------------------|
D|-----------------------------------|-----------------------------------|
A|-4-4-4-4-4-4-4-4--2-2-2-2--5-5-5-5-|-4-4-4-4-4-4-4-4--2-2-2-2--5-5-5-5-|
E|-----------------------------------|-----------------------------------|

  ("I'm gonna dance on your grave")   ("This Is My Final Warning")
G|-----------------------------------|-----------------------------------|
D|-----------------------------------|-----------------------------------|
A|-4-4-4-4-4-4-4-4--2-2-2-2--5-5-5-5-|-4---------------------------------|
E|-----------------------------------|-----------------------------------|

   ("I'll burn you at the stake")    ("I'll throw you in a lake")
G|-----------------------------------|-----------------------------------|
D|-----------------------------------|-----------------------------------|
A|-4-4-4-4-4-4-4-4--2-2-2-2--5-5-5-5-|-4-4-4-4-4-4-4-4--2-2-2-2--5-5-5-5-|
E|-----------------------------------|-----------------------------------|

 ("I never hesitate, never hesitate")   ("This Is My Final Warning")
G|-----------------------------------|-----------------------------------|
D|-----------------------------------|-----------------------------------|
A|-4-4-4-4-4-4-4-4--2-2-2-2--5-5-5-5-|-4---------------------------------|
E|-----------------------------------|-----------------------------------|


Chorus:
("All you squares in the dead zone, Beware in the danger zone")
G|---------------------------------------------------------------------|
D|---------------------------------------------------------------------|
A|-------------------------------5--4-4-4-4-4-4-4-4-4--4-4-4-4-4-4-----|
E|-5-5-5-5-5-5-5-5--5-5-5-5-5-5-------------------------------------2--|

("All you squares in the dead zone, Knock Knock and there's nobody home")
G|---------------------------------------------------------------------|
D|---------------------------------------------------------------------|
A|-------------------------------5--4-4-4-4-4-4-4-4-4--4-4-4-4-4-4-----|
E|-5-5-5-5-5-5-5-5--5-5-5-5-5-5-------------------------------------2--|

("Jump back, jump back, Step Back Step Back")
G|---------------------------------------------------------------------|
D|---------------------------------------------------------------------|
A|-------------------------------5--4-4-4-4-4-4-4-4-4--4-4-4-4-4-4-----|
E|-5-5-5-5-5-5-5-5--5-5-5-5-5-5-------------------------------------2--|

("When you die, you'll be dead, you'll be on your own")
G|---------------------------------------------------------------------|
D|---------------------------------------------------------------------|
A|-------------------------------5--4----------------------------------|
E|-5-5-5-5-5-5-5-5--5-5-5-5-5-5----------------------------------------|


Outro:
G|-----------------------------------|-----------------------------------|
D|-----------------------------------|-----------------------------------|
A|-2/4-4-4-4-4-4-4-4---------0-0-0-0-|-2/4-4-4-4-4-4-4-4---------0-0-0-0-|
E|-------------------2-2-2-2---------|-------------------2-2-2-2---------|

("It's the final countdown")      ("For the final clampdown")
G|-----------------------------------|-----------------------------------|
D|-----------------------------------|-----------------------------------|
A|-2/4(hold)-------------------------|-2/4(hold)-------------------------|
E|-----------------------------------|-------------------2---------------|

 ("This is my final warning")      ("I'm gonna keep you running")
G|-----------------------------------|-----------------------------------|
D|-----------------------------------|-----------------------------------|
A|-2/4-4-4-4-4-4-4-4---------0-0-0-0-|-2/4-4-4-4-4-4-4-4---------0-0-0-0-|
E|-------------------2-2-2-2---------|-------------------2-2-2-2---------|

 (I'll kill you in the morning")    ("When you see me coming")
G|-----------------------------------|-----------------------------------|
D|-----------------------------------|-----------------------------------|
A|-2/4-4-4-4-4-4-4-4---------0-0-0-0-|-2/4-4-4-4-4-4-4-4---------0-0-0-0-|
E|-------------------2-2-2-2---------|-------------------2-2-2-2---------|

 ("I'll kill you all")        ("Without mercy, Kill you all")
G|-----------------------------------|-----------------------------------|
D|-----------------------------------|-----------------------------------|
A|-2/4-4-4-4-4-4-4-4---------0-0-0-0-|-2/4-4-4-4-4-4-4-4---------0-0-0-0-|
E|-------------------2-2-2-2---------|-------------------2-2-2-2---------|

  ("Without mercy, Kill you all")   ("Without mercy, Kill you all")  ("Without Mercy")
G|-----------------------------------|-----------------------------------|-------------|
D|-----------------------------------|-----------------------------------|-------------|
A|-2/4-4-4-4-4-4-4-4---------0-0-0-0-|-2/4-4-4-4-4-4-4-4---------0-0-0-0-|-2--4--------|
E|-------------------2-2-2-2---------|-------------------2-2-2-2---------|-------------|


************************************

| / Slide up

Almost there ...

Sign in to get your own page with links to favourite songs and more. You are just one click away...

Login with Facebook Login with Google