Log in

One click and you are in

Login with Facebook Login with Google

Why sign up and log in

Guitar Tabs Explorer
Turbonegro tabs for Do you do you dig destruction

Do You Do You Dig Destruction tab by Turbonegro

Turbonegro tabs for Do you do you dig destruction

Guitar tabs

||----------------|----------------|------------------------|----------------|
||----------------|----------------|------------------------|----------------|
||----------------|-9-9-9-9-9-9-9-9|------------------------|-9-9-9-9-9-9-9-9|
||-9-9-9-9-9-9-9-9|-9-9-9-9-9-9-9-9|-12-12-12-12-12-12-12-12|-9-9-9-9-9-9-9-9|
||-9-9-9-9-9-9-9-9|-7-7-7-7-7-7-7-7|-12-12-12-12-12-12-12-12|-7-7-7-7-7-7-7-7|
||-7-7-7-7-7-7-7-7|----------------|-10-10-10-10-10-10-10-10|----------------|



Sometimes you play it this way... But you should listen to the song.

||----------------|----------------|------------------------|------------------|
||----------------|----------------|------------------------|------------------|
||----------------|-9-9-9-9-9-9-9-9|------------------------|-9-9-9-9-9-9-----9|
||-9-9-9-9-9-9-9-9|-9-9-9-9-9-9-9-9|-12-12-12-12-12-12-12-12|-9-9-9-9-9-9-9-11-|
||-9-9-9-9-9-9-9-9|-7-7-7-7-7-7-7-7|-12-12-12-12-12-12-12-12|-7-7-7-7-7-7------|
||-7-7-7-7-7-7-7-7|----------------|-10-10-10-10-10-10-10-10|------------------|

Almost there ...

Sign in to get your own page with links to favourite songs and more. You are just one click away...

Login with Facebook Login with Google