Log in

One click and you are in

Login with Facebook Login with Google

Why sign up and log in

Guitar Tabs Explorer
Turbonegro bass tabs for Denim demon

Bass tabs with lyrics

Tuning: Standard (E A D G)

Key: A

Difficulty: Novice
Intro:
G|----------------------------------|----------------------------------|
D|----------------------------------|----------------------------------|
A|----------------------------------|----------------------------------|
E|-5--------------------------------|----------------------------------|

G|----------------------------------|----------------------------------|
D|----------------------------------|----------------------------------|
A|-----------------8-8-8-8--5-5-5-5-|-----------------8-8-8-8--5-5-5-5-|
E|-5-5-5-5-5-5-5-5------------------|-5-5-5-5-5-5-5-5------------------|


Verse:
("I tried to be part of the scene, bought all the records and magazines")
G|------------------------------------|------------------------------------|
D|------------------------------------|------------------------------------|
A|------------------------------------|------------------------------------|
E|-5-5-5-5--3-3-3-3--1-1-1-1-1-1--3-3-|-5-5-5-5--3-3-3-3--1-1-1-1-1-1--3-3-|

("But all the kids they put me down Laughed and said I was a clown Said they didn't want me around Made me..")
G|------------------------------------|------------------------------------|
D|------------------------------------|------------------------------------|
A|------------------------------------|------------------------------------|
E|-5-5-5-5--3-3-3-3--1-1-1-1-1-1--3-3-|-5-5-5-5--3-3-3-3--1-1-1-1-1-1--3-3-|


PreChorus:
("But now I'm back with a bang, I've got my own leather gang, And all of them are men And denim's back again")
G|----------------------------------|---------------------------------------|
D|----------------------------------|---------------------------------------|
A|-5-5-5-5-5-5-5-5--8-8-8-8-8-8-8-8-|-5-5-5-5-5-5-5-5--8-8-8-8--10-10-10-10-|
E|----------------------------------|---------------------------------------|

Chorus:
("And I am, and I am a Denim Demon, Got my own congregation, I am a saint for seamen")
G|------------------------------------|------------------------------------|
D|------------------------------------|------------------------------------|
A|------------------------------------|------------------------------------|
E|-5-5-5-5--3-3-3-3--1-1-1-1-1-1--3-3-|-5-5-5-5--3-3-3-3--1-1-1-1-1-1--3-3-|

("And I am, and I am a Denim Demon, You've got my penis steaming, And your asshole's screaming "Help!")
G|------------------------------------|------------------------------------|
D|------------------------------------|------------------------------------|
A|------------------------------------|------------------------------------|
E|-5-5-5-5--3-3-3-3--1-1-1-1-1-1--3-3-|-1-1-1-1-1-1--3-3--1-1-1-1-1-1--3-3-|


Intro:
G|----------------------------------|----------------------------------|
D|----------------------------------|----------------------------------|
A|-----------------8-8-8-8--5-5-5-5-|-----------------8-8-8-8--5-5-5-5-|
E|-5-5-5-5-5-5-5-5------------------|-5-5-5-5-5-5-5-5------------------|


Verse:
("The day is black, the night is white, The disco sun it shines so bright")
G|------------------------------------|------------------------------------|
D|------------------------------------|------------------------------------|
A|------------------------------------|------------------------------------|
E|-5-5-5-5--3-3-3-3--1-1-1-1-1-1--3-3-|-5-5-5-5--3-3-3-3--1-1-1-1-1-1--3-3-|

("Protruding buttocks left and right, I draw my sword, prepared for a fight, The stench of piss reveals...")
G|------------------------------------|------------------------------------|
D|------------------------------------|------------------------------------|
A|------------------------------------|------------------------------------|
E|-5-5-5-5--3-3-3-3--1-1-1-1-1-1--3-3-|-5-5-5-5--3-3-3-3--1-1-1-1-1-1--3-3-|


PreChorus:
("Now I'm back with a bang, I've got my own leather gang, And all of them are men And denim's back again")
G|----------------------------------|---------------------------------------|
D|----------------------------------|---------------------------------------|
A|-5-5-5-5-5-5-5-5--8-8-8-8-8-8-8-8-|-5-5-5-5-5-5-5-5--8-8-8-8--10-10-10-10-|
E|----------------------------------|---------------------------------------|


Chorus:
("And I am, and I am a Denim Demon, Got my own congregation, I am a saint for seamen")
G|------------------------------------|------------------------------------|
D|------------------------------------|------------------------------------|
A|------------------------------------|------------------------------------|
E|-5-5-5-5--3-3-3-3--1-1-1-1-1-1--3-3-|-5-5-5-5--3-3-3-3--1-1-1-1-1-1--3-3-|

("And I am, and I am a Denim Demon, You've got my penis steaming, And your asshole's screaming "Help!")
G|------------------------------------|------------------------------------|
D|------------------------------------|------------------------------------|
A|------------------------------------|------------------------------------|
E|-5-5-5-5--3-3-3-3--1-1-1-1-1-1--3-3-|-1-1-1-1-1-1--3-3--1-1-1-1-1-1--3-3-|


Outro:
("Outside of Society, Good head, good head, Outside of Society, Good head, good head")
G|----------------------------------|----------------------------------|
D|----------------------------------|----------------------------------|
A|--------------------------5-5-5-5-|--------------------------5-5-5-5-|
E|-5-5-5-5-5-5-5-5--1-1-1-1---------|-5-5-5-5-5-5-5-5--1-1-1-1---------|

("Outside of Society, Good head, good head, Outside of Society, Good head, good head- Outside!")
G|----------------------------------|----------------------------------|------|
D|----------------------------------|----------------------------------|------|
A|--------------------------5-5-5-5-|--------------------------5-5-5-5-|------|
E|-5-5-5-5-5-5-5-5--1-1-1-1---------|-5-5-5-5-5-5-5-5--1-1-1-1---------|-5----|

Almost there ...

Sign in to get your own page with links to favourite songs and more. You are just one click away...

Login with Facebook Login with Google