Log in

One click and you are in

Login with Facebook Login with Google

Why sign up and log in

Guitar Tabs Explorer
Turbonegro tabs for Death from above

Guitar tabs

Tabbed by: xstaytruex

All right this song is pretty simple. There'S some little riffs with Wah missing, try to
figure it out yourself.
VERSE:                                   --
e----------------------------------|       |
B----------------------------------|       |
G--6-6-6-6-6-6-6-6-6-6-6-6/9--9-9--|       |
D--6-6-6-6-6-6-6-6-6-6-6-6/9--9-9--| x3    |
A--4-4-4-4-4-4-4-4-4-4-4-4/7--7-7--|       |
E----------------------------------|       |
                                           |
 Then                                      | x3
e-----------------------------------|      |
B-----------------------------------|      |
G--6-6-6-6-6-6-6-6------------------|      |
D--6-6-6-6-6-6-6-6-7-7-7-7-9-9-9-9--|      |
A--4-4-4-4-4-4-4-4-7-7-7-7-9-9-9-9--|      |
E------------------5-5-5-5-7-7-7-7--|      |
                                         --


CHORUS:
e-----------------------------|
B-----------------------------|
G-----------------------------|
D--2-----------------5--7--5--| x3
A--2-----------------5--7--5--|
E--0-0-0-0-0-0-0-0-0-3--5--3--|
    [------P.M------]

e--------------------|
B--------------------|
G--------------------|
D--7--9--7--5--7--5--|
A--7--9--7--5--7--3--|
E--5--7--5--3--5--3--|

e-----------------------------|
B-----------------------------|
G-----------------------------|
D--2-----------------5--7--5--| x3
A--2-----------------5--7--5--|
E--0-0-0-0-0-0-0-0-0-3--5--3--|
    [------P.M------]

e--------------------|
B--------------------|
G--------------------|
D--7--9--7--5--7--5--|
A--7--9--7--5--7--3--|
E--5--7--5--3--5--3--|


BRIDGE:
e---------------------|
B---------------------|
G--5--7--9--12--5--7--|
D--5--7--9--12--5--7--|
A--3--5--7--10--3--5--|
E---------------------|
   x8 x8 x8 x8 x8


VERSE:
(In this one the second guitar plays higher
 for the first time you play the whole verse)
                                         --
e----------------------------------|       |
B----------------------------------|       |
G--6-6-6-6-6-6-6-6-6-6-6-6/9--9-9--|       |
D--6-6-6-6-6-6-6-6-6-6-6-6/9--9-9--| x3    |
A--4-4-4-4-4-4-4-4-4-4-4-4/7--7-7--|       |
E----------------------------------|       |
                                           |
 Then                                      | x3
e-----------------------------------|      |
B-----------------------------------|      |
G--6-6-6-6-6-6-6-6------------------|      |
D--6-6-6-6-6-6-6-6-7-7-7-7-9-9-9-9--|      |
A--4-4-4-4-4-4-4-4-7-7-7-7-9-9-9-9--|      |
E------------------5-5-5-5-7-7-7-7--|      |
                                         --


CHORUS:
e-----------------------------|
B-----------------------------|
G-----------------------------|
D--2-----------------5--7--5--| x3
A--2-----------------5--7--5--|
E--0-0-0-0-0-0-0-0-0-3--5--3--|
    [------P.M------]

e--------------------|
B--------------------|
G--------------------|
D--7--9--7--5--7--5--|
A--7--9--7--5--7--3--|
E--5--7--5--3--5--3--|

e-----------------------------|
B-----------------------------|
G-----------------------------|
D--2-----------------5--7--5--| x3
A--2-----------------5--7--5--|
E--0-0-0-0-0-0-0-0-0-3--5--3--|
    [------P.M------]

e--------------------|
B--------------------|
G--------------------|
D--7--9--7--5--7--5--|
A--7--9--7--5--7--3--|
E--5--7--5--3--5--3--|


BRIDGE:
e---------------------|
B---------------------|
G--5--7--9--12--5--7--|
D--5--7--9--12--5--7--|
A--3--5--7--10--3--5--|
E---------------------|
   x8 x8 x8 x8 x8


VERSE:                                   --
e----------------------------------|       |
B----------------------------------|       |
G--6-6-6-6-6-6-6-6-6-6-6-6/9--9-9--|       |
D--6-6-6-6-6-6-6-6-6-6-6-6/9--9-9--| x3    |
A--4-4-4-4-4-4-4-4-4-4-4-4/7--7-7--|       |
E----------------------------------|       |
                                           |
 Then                                      | x3
e-----------------------------------|      |
B-----------------------------------|      |
G--6-6-6-6-6-6-6-6------------------|      |
D--6-6-6-6-6-6-6-6-7-7-7-7-9-9-9-9--|      |
A--4-4-4-4-4-4-4-4-7-7-7-7-9-9-9-9--|      |
E------------------5-5-5-5-7-7-7-7--|      |
                                         --


OUTRO:
e------|
B------|
G-6-6--|
D-6-6--|
A-4-4--|
E------|

Almost there ...

Sign in to get your own page with links to favourite songs and more. You are just one click away...

Login with Facebook Login with Google