Log in

One click and you are in

Login with Facebook Login with Google

Why sign up and log in

Guitar Tabs Explorer
Turbonegro bass tabs for Death from above

Bass tabs with lyrics

Tuning: Standard (E A D G)

Key: E

Difficulty: Novice
Intro:
G|-------------------------------|-------------------------------|
D|-----------------------5-5-5-5-|-----------------------5-5-5-5-|
A|-7-7-7-7-7-7-7-7-7-7-7---------|-7-7-7-7-7-7-7-7-7-7-7---------|
E|-------------------------------|-------------------------------|

G|-------------------------------|---------------------------------|
D|-----------------------5-5-5-5-|---------------------------------|
A|-7-7-7-7-7-7-7-7-7-7-7---------|-7-7-7-7-7-7-7--3-3-3-3--5-5-5-5-|
E|-------------------------------|---------------------------------|


Verse:
("I don't wanna work for the FBI, I don't wanna know where the bodies lie
G|-------------------------------|-------------------------------|
D|-----------------------5-5-5-5-|-----------------------5-5-5-5-|
A|-7-7-7-7-7-7-7-7-7-7-7---------|-7-7-7-7-7-7-7-7-7-7-7---------|
E|-------------------------------|-------------------------------|

("I don't give a fuck if your life has died, It's just karma, bad karma")
G|-------------------------------|---------------------------------|
D|-----------------------5-5-5-5-|---------------------------------|
A|-7-7-7-7-7-7-7-7-7-7-7---------|-7-7-7-7-7-7-7--3-3-3-3--5-5-5-5-|
E|-------------------------------|---------------------------------|

("I don't really care if you're engulfed in flames, I don't even care if you don't look the same")
G|-------------------------------|-------------------------------|
D|-----------------------5-5-5-5-|-----------------------5-5-5-5-|
A|-7-7-7-7-7-7-7-7-7-7-7---------|-7-7-7-7-7-7-7-7-7-7-7---------|
E|-------------------------------|-------------------------------|

("I don't really care if you catch the train, To nowhere, the last train to nowhere")
G|-------------------------------|---------------------------------|
D|-----------------------5-5-5-5-|---------------------------------|
A|-7-7-7-7-7-7-7-7-7-7-7---------|-7-7-7-7-7-7-7--3-3-3-3--5-5-5-5-|
E|-------------------------------|---------------------------------|

Chorus:
("It's just a Death From Above,     Death From Above,      Death From Above")
G|---------------------------|---------------------------|---------------------------|-------------------|
D|---------------------------|---------------------------|---------------------------|-------------------|
A|---------------------------|---------------------------|---------------------------|-------------------|
E|-0-0-0-0-0-0-0-0--3--5--3--|-0-0-0-0-0-0-0-0--3--5--3--|-0-0-0-0-0-0-0-0--3--5--3--|-5--6--5--3--5--3--|

("It's just a Death From Above,     Death From Above,      Death From Above")
G|---------------------------|---------------------------|---------------------------|-------------------|
D|---------------------------|---------------------------|---------------------------|-------------------|
A|---------------------------|---------------------------|---------------------------|-------------------|
E|-0-0-0-0-0-0-0-0--3--5--3--|-0-0-0-0-0-0-0-0--3--5--3--|-0-0-0-0-0-0-0-0--3--5--3--|-5--6--5--3--5--3--|

("Flying in on the wings of destruction with freedom in our eyes It's a Death from above and everybody dies")
G|-------------------------------------------------------------------|----------------------------------|
D|---------------------------------------------------5-5-5-5-5-5-5-5-|----------------------------------|
A|-3-3-3-3-3-3-3-3--5-5-5-5-5-5-5-5--7-7-7-7-7-7-7-7-----------------|-3-3-3-3-3-3-3-3--5---------------|
E|-------------------------------------------------------------------|----------------------------------|


Intro:
G|-------------------------------|-------------------------------|
D|-----------------------5-5-5-5-|-----------------------5-5-5-5-|
A|-7-7-7-7-7-7-7-7-7-7-7---------|-7-7-7-7-7-7-7-7-7-7-7---------|
E|-------------------------------|-------------------------------|

G|-------------------------------|---------------------------------|
D|-----------------------5-5-5-5-|---------------------------------|
A|-7-7-7-7-7-7-7-7-7-7-7---------|-7-7-7-7-7-7-7--3-3-3-3--5-5-5-5-|
E|-------------------------------|---------------------------------|


Verse:
("I don't care if your house's in pieces, I don't care if you're cryin for Jesus")
G|-------------------------------|-------------------------------|
D|-----------------------5-5-5-5-|-----------------------5-5-5-5-|
A|-7-7-7-7-7-7-7-7-7-7-7---------|-7-7-7-7-7-7-7-7-7-7-7---------|
E|-------------------------------|-------------------------------|

("When you find youreself in a storm of feces, Of feces, a storm of feces")
G|-------------------------------|---------------------------------|
D|-----------------------5-5-5-5-|---------------------------------|
A|-7-7-7-7-7-7-7-7-7-7-7---------|-7-7-7-7-7-7-7--3-3-3-3--5-5-5-5-|
E|-------------------------------|---------------------------------|

("Let the flag of destruction fly, From the top of the mountain high")
G|-------------------------------|-------------------------------|
D|-----------------------5-5-5-5-|-----------------------5-5-5-5-|
A|-7-7-7-7-7-7-7-7-7-7-7---------|-7-7-7-7-7-7-7-7-7-7-7---------|
E|-------------------------------|-------------------------------|

("From the chateaus to the plateaus, In the shadows, the shadows")
G|-------------------------------|---------------------------------|
D|-----------------------5-5-5-5-|---------------------------------|
A|-7-7-7-7-7-7-7-7-7-7-7---------|-7-7-7-7-7-7-7--3-3-3-3--5-5-5-5-|
E|-------------------------------|---------------------------------|


Chorus:
("It's just a Death From Above,     Death From Above,      Death From Above")
G|---------------------------|---------------------------|---------------------------|-------------------|
D|---------------------------|---------------------------|---------------------------|-------------------|
A|---------------------------|---------------------------|---------------------------|-------------------|
E|-0-0-0-0-0-0-0-0--3--5--3--|-0-0-0-0-0-0-0-0--3--5--3--|-0-0-0-0-0-0-0-0--3--5--3--|-5--6--5--3--5--3--|

("It's just a Death From Above,     Death From Above,      Death From Above")
G|---------------------------|---------------------------|---------------------------|-------------------|
D|---------------------------|---------------------------|---------------------------|-------------------|
A|---------------------------|---------------------------|---------------------------|-------------------|
E|-0-0-0-0-0-0-0-0--3--5--3--|-0-0-0-0-0-0-0-0--3--5--3--|-0-0-0-0-0-0-0-0--3--5--3--|-5--6--5--3--5--3--|

("Flying in on the wings of destruction with freedom in our eyes It's a Death from above and everybody dies")
G|-------------------------------------------------------------------|----------------------------------|
D|---------------------------------------------------5-5-5-5-5-5-5-5-|----------------------------------|
A|-3-3-3-3-3-3-3-3--5-5-5-5-5-5-5-5--7-7-7-7-7-7-7-7-----------------|-3-3-3-3-3-3-3-3--5---------------|
E|-------------------------------------------------------------------|----------------------------------|


Outro:
G|-------------------------------|-------------------------------|
D|-----------------------5-5-5-5-|-----------------------5-5-5-5-|
A|-7-7-7-7-7-7-7-7-7-7-7---------|-7-7-7-7-7-7-7-7-7-7-7---------|
E|-------------------------------|-------------------------------|

("Dies")
G|-------------------------------|---------------------------------|
D|-----------------------5-5-5-5-|---------------------------------|
A|-7-7-7-7-7-7-7-7-7-7-7---------|-7-7-7-7-7-7-7--3-3-3-3--5-5-5-5-|
E|-------------------------------|---------------------------------|

("Dies")
G|-------------------------------|-------------------------------|
D|-----------------------5-5-5-5-|-----------------------5-5-5-5-|
A|-7-7-7-7-7-7-7-7-7-7-7---------|-7-7-7-7-7-7-7-7-7-7-7---------|
E|-------------------------------|-------------------------------|

                                  ("Death From Above")
G|-------------------------------|---------------------------------|-------------------|
D|-----------------------5-5-5-5-|---------------------------------|-------------------|
A|-7-7-7-7-7-7-7-7-7-7-7---------|-7-7-7-7-7-7-7--3-3-3-3--5-5-5-5-|-7-7-----7-7--5--7-|
E|-------------------------------|---------------------------------|-------------------|

Almost there ...

Sign in to get your own page with links to favourite songs and more. You are just one click away...

Login with Facebook Login with Google