Log in

One click and you are in

Login with Facebook Login with Google

Why sign up and log in

Guitar Tabs Explorer
Turbonegro bass tabs for All my friends are dead

All My Friends Are Dead bass tab by Turbonegro

Turbonegro bass tabs for All my friends are dead

Bass tabs

artist: turbinegro
album: party animals

tuning: standard (eadg)
intro
          x4
g|---------|---------|
d|*--------|--------*|
a|*7-7-8---|5-7-6---*|
e|---------|---------|


verse 1
g|-------|--------|--------|--------|--------|
d|rest---|-rest---|rest----|-rest---|rest----|
a|----5-5|7-------|-----5-5|7-------|----5-5-|
e|-------|--------|--------|--------|--------|

g|--------|--------|--------|--------|
d|--------|--------|--------|--------|
a|33333333|----5555|77777777|77775-5-|
e|--------|5555----|--------|--------|

g|--------|--------|--------|--------|
d|--------|--------|--------|--------|
a|77777777|77775-5-|77777777|77775-5-|
e|--------|--------|--------|--------|

g|--------|--------|--------|
d|--------|--------|--------|
a|33333333|----5555|77777777|
e|--------|5555----|--------|

fill
g|---------7-------|
d|-----7-9---9-7---|
a|7-10-----------10|
e|-----------------|

chorus
g|--------|--------|--------|
d|--------|--------|--------|
a|3-3-----|5-5-----|77777777| play fill
e|----3-3-|----5-5-|--------|
                   x4
g|--------|--------|---------|---------|
d|--------|--------|*--------|--------*|
a|3-3-----|5-5-----|*--------|--------*|
e|----3-3-|----5-5-|-77777777|77778-8--|


verse 2
g|--------|--------|--------|--------|
d|--------|--------|--------|--------|
a|77777777|77775-5-|77777777|77775-5-|
e|--------|--------|--------|--------|

g|--------|--------|--------|--------|
d|--------|--------|--------|--------|
a|33333333|----5555|77777777|77775-5-|
e|--------|5555----|--------|--------|

g|--------|--------|--------|--------|
d|--------|--------|--------|--------|
a|77777777|77775-5-|77777777|77775-5-|
e|--------|--------|--------|--------|


g|--------|--------|--------|
d|--------|--------|--------|
a|33333333|----5555|77777777|
e|--------|5555----|--------|

fill
g|---------7-------|
d|-----7-9---9-7---|
a|7-10-----------10|
e|-----------------|


chorus again


verse 2 again (guitar solo)


chorus again


outro
          x2
g|---------|---------|
d|*--------|--------*|
a|*7-7-8---|5-7-6---*|
e|---------|---------|



questions, comments? email me @ zstorman@yahoo.com

Almost there ...

Sign in to get your own page with links to favourite songs and more. You are just one click away...

Login with Facebook Login with Google