Log in

One click and you are in

Login with Facebook Login with Google

Why sign up and log in

Guitar Tabs Explorer
Turbonegro tabs for Age of pamparius

Guitar tabs with lyrics

I only tabbed the rythm Guitar because Euroboy`s solos is to hard to tab out.


Tuning: eBGDAE
Intro Guitar 1 (Repeat 4):
e-1212121212121212|10-9101010101010|-9-9-9-9-9-9-9-9|1212121212121212|
B-1212121212121212|1212121212121212|1010101010101010|1010101010101010|
G-----------------|----------------|----------------|----------------|
D-----------------|----------------|----------------|----------------|
A-----------------|----------------|----------------|----------------|
E-----------------|----------------|----------------|----------------|


Intro Guitar 2 (Played over guitar 1, repeat 3 times) hold the last tone:

e-----------------|----------------|----------------|----------------|
B-----------------|----------------|----------------|----------------|
G-----------------|----------------|----------------|----------------|
D-----------------|----------------|----------------|--------5---3---|
A-----------------|----------------|----------------|--------5---3---|
E-----------------|----------------|----------------|--------3---1---|

e-----------------|
B-----------------|
G-----------------|
D-2---------------|
A-2---------------|
E-0---------------|

The fourth time you play the intro you play it like this. This is where what I have

bridge 1 starts, play it like this:

Bridge 1:
e-----------------|----------------|----------------|----------------|
B-----------------|----------------|----------------|----------------|
G-----------------|----------------|----------------|----------------|
D-----------------|----------------|----------------|--------5---3---|
A-----------------|----------------|----------------|--------5---3---|
E-----------------|----------------|----------------|--------3---1---|

e-----------------|----------------|----------------|----------------|
B-----------------|----------------|----------------|----------------|
G-----------------|----------------|----------------|-2-2-2-2-2-2-2-2|
D-2-2-2-2-2-2-2-2-|2-2-2-2-2-2-2-2-|-5-5-5-5-5-5-5-5|-2-2-2-2-2-2-2-2|
A-2-2-2-2-2-2-2-2-|2-2-2-2-2-2-2-2-|-3-3-3-3-3-3-3-3|-0-0-0-0-0-0-0-0|
E-0-0-0-0-0-0-0-0-|0-0-0-0-0-0-0-0-|-3-3-3-3-3-3-3-3|----------------|

                    oohohohohoho

B-----------------|
G-----------------|
D---------5---3---|
A---------5---3---|
E---------3---1---|

e-----------------|----------------|----------------|----------------|
B-----------------|----------------|----------------|----------------|
G-----------------|----------------|----------------|-2-2-2-2-2-2-2-2|
D-2-2-2-2-2-2-2-2-|2-2-2-2-2-2-2-2-|-5-5-5-5-5-5-5-5|-2-2-2-2-2-2-2-2|
A-2-2-2-2-2-2-2-2-|2-2-2-2-2-2-2-2-|-3-3-3-3-3-3-3-3|-0-0-0-0-0-0-0-0|
E-0-0-0-0-0-0-0-0-|0-0-0-0-0-0-0-0-|-3-3-3-3-3-3-3-3|----------------|

                    ohohohohohoho

The first guitar play this over it (twice):

e-----------------|----------------|----------------|----------------|
B-----------------|----------------|----------------|----------------|
G-----------------|----------------|1212121111-9-9--|1212121111-9-9--|
D-2-2-2-2-2-2-2-2-|2-2-2-2-2-2-2-2-|1212121111-9-9--|1212121111-9-9--|
A-2-2-2-2-2-2-2-2-|2-2-2-2-2-2-2-2-|101010-9-9-7-7--|101010-9-9-7-7--|
E-0-0-0-0-0-0-0-0-|0-0-0-0-0-0-0-0-|----------------|----------------|


Verse (repeat 4):

e-----------------|----------------|----------------|----------------|
B-----------------|----------------|----------------|----------------|
G-----------------|----------------|7-7-7-7-7-7-7-7-|7-7-7-7-7-7-7-7-|
D-2-2-2-2-2-2-2-2-|-2-2-2-2-2-2-2-2|5-5-5-5-5-5-5-5-|5-5-5-5-5-5-5-5-|
A-2-2-2-2-2-2-2-2-|-2-2-2-2-2-2-2-2|5-5-5-5-5-5-5-5-|5-5-5-5-5-5-5-5-|
E-0-0-0-0-0-0-0-0-|0-0-0-0-0-0-0-0-|----------------|----------------|

  So you think you have an opera?   Well, not like this.


Chorus (Play it twice):

e-----------------|----------------|----------------|----------------|
B-----------------|----------------|----------------|----------------|
G-5-5-5-5-5-5-5-5-|----------------|5-5-5-5-5-5-5-5-|----------------|
D-5-5-5-5-5-5-5-5-|2-2-2-2-2-2-2-2-|5-5-5-5-5-5-5-5-|----------------|
A-3-3-3-3-3-3-3-3-|2-2-2-2-2-2-2-2-|7-7-7-7-7-7-7-7-|2-2-2-2-2-2-2-2-|
E-----------------|0-0-0-0-0-0-0-0-|----------------|0-0-0-0-0-0-0-0-|

e-----------------|----------------|----------------|----------------|
B-----------------|----------------|----------------|----------------|
G-5-5-5-5-5-5-5-5-|----------------|5-5-5-5-5-5-5-5-|5-5-5-5-5-5-5-5-|
D-5-5-5-5-5-5-5-5-|2-2-2-2-2-2-2-2-|5-5-5-5-5-5-5-5-|5-5-5-5-5-5-5-5-|
A-3-3-3-3-3-3-3-3-|2-2-2-2-2-2-2-2-|7-7-7-7-7-7-7-7-|7-7-7-7-7-7-7-7-|
E-----------------|0-0-0-0-0-0-0-0-|----------------|----------------|

Brigde 2:

e-----------------|----------------|----------------|----------------|
B-----------------|----------------|----------------|----------------|
G-----------2-2-2-|----------------|----------------|----------------|
D-----------2-2-2-|----------------|--------5---3---|2-2-2-2-2-2-2-2-|
A-----------0-0-0-|----------------|--------5---3---|2-2-2-2-2-2-2-2-|
E-----------------|----------------|--------3---1---|2-2-2-2-2-2-2-2-|

As you may see, the verse starts again. Play the whole song (so far) again, without the intro.
After the refrain, you play this:

The bass plays a rythm in E, without the guitar. You can play this instead of the bass.

e-----------------|----------------|
B-----------------|----------------|
G-----------------|----------------|  x 2
D-2-2-2-2-2-2-2-2-|2-2-2-2-2-2-2-2-|
A-2-2-2-2-2-2-2-2-|2-2-2-2-2-2-2-2-|
E-0-0-0-0-0-0-0-0-|0-0-0-0-0-0-0-0-|

Then you play this (Repeat it three times):
I`m a bit unsure about the last chord, but I think it`s something like that.

e-----------------|----------------|----------------|----------------|
B-----------------|----------------|----------------|----------------|
G-9---------------|7---------------|5---------------|----------------|
D-9---------------|7---------------|5---------------|5---------------|
A-7---------------|5---------------|3---------------|5---------------|
E-----------------|----------------|----------------|3---------------|

The lead guitar (Euroboy) plays this over it (start on the second:

e-----------------|----------------|----------------|----------------|
B-12--------------|--------------12|12--------------|--------------12|
G------12---14----|-----14---12----|-----12---14----|-----14---12----|
D---------------12|12--------------|--------------12|12--------------|
A-----------------|----------------|----------------|----------------|
E-----------------|----------------|----------------|----------------|

Then you play the chorus twice, and the second time, you play the last chord twice as
as normal.
Then you play brigde 1 two times. The outro is just a lot of solos and different chords.

Almost there ...

Sign in to get your own page with links to favourite songs and more. You are just one click away...

Login with Facebook Login with Google