Log in

One click and you are in

Login with Facebook Login with Google

Why sign up and log in

Guitar Tabs Explorer
Gary Numan bass tabs for You are in my vision

Bass tabs

Tuning: Standard tuning


Tabbed by: bassm99
E-mail: alanmatthews1966@yahoo.co.uk
Tuning: E, A, D, G

Bass Starts: 0:02


Intro:

G|--------------------------------------------------------------------------|
D|--------------------------------------------------------------------------|
A|--12\-(x1)----------------------------------------------------------------|
E|-----------0-0-2-3---5-5-3-2-(x8)-----------------------------------------|


Verse:

G|--------------------------------------------------------------------------|
D|--------------------------------------------------------------------------|
A|-------------------------5-5-5--------------------------------------------|
E|--0-0-2-3---5-5-3-2-(x7)-------5-5-5-3-(x1)-0-0-2-3---5-5-3-2-(x4)--------|

G|--------------------------------------------------------------------------|
D|-----------------------------------7--------------------------------------|
A|-------------------------5-5-5--------------------------------------------|
E|--0-0-2-3---5-5-3-2-(x7)-------5-5---(x1)-0-0-2-3---5-5-3-2-(x4)----------|


Chorus:

G|--------------------------------------------------------------------------|
D|--------------------------------------------------------------------------|
A|--5-5-----3-5--7-7--7-7--5-0-(x3)-5-5-------------------------------------|
E|------5-5-----------------------------5-5--3-3--3-3--3-3--3-3-2-2---------|

Intro:

G|--------------------------------------------------------------------------|
D|--------------------------------------------------------------------------|
A|--------------------------------------------------------------------------|
E|--0-0-2-3---5-5-3-2-(x2)-0-0-2-3---5-5-7-3-(x1)-0-0-2-3---5-5-3-2-(x1)----|


Verse:

G|--------------------------------------------------------------------------|
D|--------------------------------------------------------------------------|
A|-------------------------5-5-5--------------------------------------------|
E|--0-0-2-3---5-5-3-2-(x7)-------5-5-5-3-(x1)-0-0-2-3---5-5-3-2-(x4)--------|

Repeat Chorus: (Play 3 Times)


Chorus To End: (Fades Out)

G|--------------------------------------------------------------------------|
D|----------------------------------------------------14-12-----------------|
A|--5-5-----3-5--7-7--7-7--5-0-(x2)-5-5-----3-5--7-7--------14-12-(x1)------|
E|------5-5-----------------------------5-5---------------------------------|

G|--------------------------------------------------------------------------|
D|--------------------------------------------------------------------------|
A|--5-5---------------------------------------------------------------------|
E|------5-5--3-3--3-3--3-3--3-3--3-3--3-3--3-3--3-3--3-3--3-3--3-3--3-3--3-3|

You Are In My Vision bass tab

Gary Numan bass tabs for You are in my vision "You Are In My Vision" from the album "Replicas" (1979).

Written by Gary Numan.

Almost there ...

Sign in to get your own page with links to favourite songs and more. You are just one click away...

Login with Facebook Login with Google