Log in

One click and you are in

Login with Facebook Login with Google

Why sign up and log in

Guitar Tabs Explorer
The Tubes tabs for White punks on dope

Guitar tabs

Group: The Tubes
Submitted by: brant

This is just the basic structure of the song as best I can tell through
all the synthesizer stuff. Since I don’t know how to notate timing in
tab, you’ll need to listen to the song to get the timing down. Oh, yeah.
This is all my own work, so I am sure there are some mistakes. Oh, well.
I gave up attaining perfection in a previous life.
Intro

A chord diagramA augmentedA A chord diagramA augmentedA

----------------
----------------
----2-------2--- 2x’s
----2-------2---
----0---0---0---
----------------

A chord diagramA augmentedA A chord diagramA augmentedA

------------------------
------------------------
--2--2------------------ 5x’s
--2--2-----2--5--2--4--2
--0--0--4--------------
------------------------


A chord diagramFF A chord diagramFF A chord diagramFF A chord diagramFF A chord diagramD MajorD A chord diagramD MajorD A chord diagramD MajorD A chord diagramD MajorD A chord diagramC majorC A chord diagramC majorC A chord diagramC majorC A chord diagramC majorC
----1----1----1----1----5----5----5----5----3----3----3----3----
----1----1----1----1----7----7----7----7----5----5----5----5----
----2----2----2----2----7----7----7----7----5----5----5----5----
----3----3----3----3----7----7----7----7----5----5----5----5----
----3----3----3----3----5----5----5----5----3----3----3----3----
----1----1----1----1--------------------------------------------

A chord diagramE MajorE A chord diagramE MajorE A chord diagramE MajorE A chord diagramE MajorE A chord diagramA augmentedA
-----------------------------------------------------
--------------------------------------------------2--
--------------------------------------------------2--
--2--2--------------------2--2--------------------2--
--2--2-----2--5--2--4--2--2--2-----2--5--2--4--2--0--
--0--0--4-----------------0--0--4--------------------

A chord diagramA augmentedA A chord diagramA augmentedA A chord diagramA augmentedA A chord diagramC majorC A chord diagramC majorC A chord diagramC majorC A chord diagramE MajorE A chord diagramE MajorE A chord diagramE MajorE A chord diagramG+G A chord diagramD MajorD
------------------------------------
------------------------------8-----
---2--2--2--5--5--5--9--9--9--7--7--
---2--2--2--5--5--5--9--9--9--5--7--
---0--0--0--3--3--3--7--7--7-----5--
------------------------------------

A chord diagramD MajorD A chord diagramD#D# A chord diagramFF A chord diagramD#D# A chord diagramD MajorD

¨Teenage had a race for the night time¨
¨Spent ...¨
¨Wasted...¨
¨Getting loose...¨

Then the intro part repeats from the 5x’s

with:

¨We’re White Punks on Dope'

ETC.

Almost there ...

Sign in to get your own page with links to favourite songs and more. You are just one click away...

Login with Facebook Login with Google