Log in

One click and you are in

Login with Facebook Login with Google

Why sign up and log in

Guitar Tabs Explorer
The Tubes bass tabs for Shes a beauty

Bass tabs with lyrics

Standard tuning (EADG)

🏷Legend:
r = rest
/ = slide up
\ = slide down
h = hammer on
p = pull off
() = sustained note
^() = 1/2 bend and release
a = acciaccatura (appears above bar)
vf = volume fade (appears above bar)
vo = volume out (appears above bar)

INTRO:
                                    3/4
G |---------------------------------|---------------------------------|-------------------------|
D |---------------------------------|---------------------------------|-------------------------|
A |---------------------------------|---------------------------------|-------------------------|
E |-r-------------------------------|-r-------------------------------|-r-----------------------|
  1  &  2  &  3  &  4  &   1  &  2  &  3  &  4  &   1  &  2  &  3  &

  4/4  (Guitar in; rest x4)
G |---------------------------------|
D |---------------------------------|
A |---------------------------------|
E |-r-------------------------------|
  1  &  2  &  3  &  4  &


PRE-VERSE (x2):

G |---------------------------------|---------------------------------|
D |---------------------------------|---------------------------------|
A |---------------------------------|---------------------------------|
E |-5---\---\---r-------------------|-r-----------2-r-3-------2-------|
  1  &  2  &  3  &  4  &   1  &  2  &  3  &  4  &


VERSE 1 (x2):

G |---------------------------------|---------------------------------|
D |---------------------------------|---------------------------------|
A |---------------------------------|---------------------------------|
E |-5-----r---------5-----r-------5-|(5)--\---r---2-r-3-------2-------|
  1  &  2  &  3  &  4  &   1  &  2  &  3  &  4  &

G |---------------------------------|---------------------------------|
D |---------------------------------|---------------------------------|
A |---------------------------------|---------------------------------|
E |-5-----r---------5-----r-------5-|(5)5-3---2-r-2---3-------2-------|
  1  &  2  &  3  &  4  &   1  &  2  &  3  &  4  &


PRE-CHORUS:

G |---------------------------------|---------------------------------|
D |---------------------------------|---------------------------------|
A |-2-----------2---2---------------|-----------------0---------------|
E |---------------------------------|-3-----------3-------------------|
  1  &  2  &  3  &  4  &   1  &  2  &  3  &  4  &

G |---------------------------------|---------------------------------|
D |---------------------------------|---------------------------------|
A |-2---------------2---0-----------|---------------------------------|
E |-------------------------3---2---|-0-----------0-3-5---------------|
  1  &  2  &  3  &  4  &   1  &  2  &  3  &  4  &

G |---------------------------------|---------------------------------|
D |-------------------------4-------|---------------------------------|
A |-2-----------4---5---------------|-----------------0-------2-------|
E |---------------------------------|-3-----------3-------------------|
  1  &  2  &  3  &  4  &   1  &  2  &  3  &  4  &

G |---------------------------------|---------------------------------|
D |---------------------------------|-------------------------5h7p5-0-|
A |-3-------------------------------|(3)------------------------------|
E |---------------------------------|---------------------------------|
  1  &  2  &  3  &  4  &   1  &  2  &  3  &  4  &


CHORUS 1:

G |---------------------------------|---------------------------------|
D |---------------------------------|---------------------------------|
A |-------5-------------------------|-------------3-r-3-------5-------|
E |-3-------2---0---r---------------|-r-------------------------------|
  1  &  2  &  3  &  4  &   1  &  2  &  3  &  4  &

G |---------------------------------|---------------------------------|
D |---------------------------------|-------------8-------------------|
A |-------5---5---------------------|-----------------8-------5-------|
E |-3-------2---0---r---------------|-r-------------------------------|
  1  &  2  &  3  &  4  &   1  &  2  &  3  &  4  &

G |---------------------------------|---------------------------------|
D |---------------------------------|---------------------------------|
A |-------5---5---------------------|-------------3-r-3-------5-------|
E |-3-------2---0---r---------------|-r-------------------------------|
  1  &  2  &  3  &  4  &   1  &  2  &  3  &  4  &

G |---------------------------------|---------------------------------|
D |---------------------------------|---------------------------------|
A |-------5---5---------------------|-------------8---7-------5-------|
E |-3-------2---0---r---------------|-r-------------------------------|
  1  &  2  &  3  &  4  &   1  &  2  &  3  &  4  &


PRE-VERSE:

G |---------------------------------|---------------------------------|
D |-7-------------------------------|---------------------------------|
A |---7-----------------------------|---------------------------------|
E |-----5---r-----------------------|-r-----------2---3-------2---r---|
  1  &  2  &  3  &  4  &   1  &  2  &  3  &  4  &

G |---------------------------------|----------------------------------|
D |-7-------------------------------|-------------4---4-^(4)-^(4)------|
A |---7-----------------------------|-----------0---0------------------|
E |-----5---\---r-------------------|-r--------------------------------|
  1  &  2  &  3  &  4  &   1  &  2  &  3  &  4  &


VERSE 2:

G |---------------------------------|---------------------------------|
D |---------------------------------|---------------------------------|
A |---------------------------------|---------------------------------|
E |-5-----r---------5-----r-------5-|(5)--\---r---2-r-3-------2-------|
  1  &  2  &  3  &  4  &   1  &  2  &  3  &  4  &

G |---------------------------------|---------------------------------|
D |---------------------------------|---------------------------------|
A |---------------------------------|---------------------------------|
E |-5-----r---------5-----r-------5-|(5)5-3---2-r-2-r-3-------2-------|
  1  &  2  &  3  &  4  &   1  &  2  &  3  &  4  &

G |---------------------------------|---------------------------------|
D |---------------------------------|-------------4---4-^(4)-^(4)-----|
A |---------------------------------|-----------0---0-----------------|
E |-5-----r---------5-----r-------5-|(5)--r---------------------------|
  1  &  2  &  3  &  4  &   1  &  2  &  3  &  4  &

G |---------------------------------|---------------------------------|
D |---------------------------------|---------------------------------|
A |---------------------------------|---------------------------------|
E |-5-----r---------5-----r-------5-|(5)5-3---2-r-2-r-3-------2-------|
  1  &  2  &  3  &  4  &   1  &  2  &  3  &  4  &


PRE-CHORUS:
                               a
G |---------------------------------|---------------------------------|
D |---------------------------------|---------------------------------|
A |-2-----------2-r-2---------0-----|-----------------0------2/4------|
E |-----------------------------3-2-|-3-----------3-------------------|
  1  &  2  &  3  &  4  &   1  &  2  &  3  &  4  &

G |---------------------------------|---------------------------------|
D |-------------------------4-------|---------------------------------|
A |-2-----------4---5---------------|-----------------0------2/4------|
E |---------------------------------|-0-------3-----------------------|
  1  &  2  &  3  &  4  &   1  &  2  &  3  &  4  &

G |---------------------------------|---------------------------------|
D |-------------------------4-------|---------------------------------|
A |-2-----------4---5---------------|-----------------0-------2-------|
E |---------------------------------|-3-----------3-------------------|
  1  &  2  &  3  &  4  &   1  &  2  &  3  &  4  &

G |---------------------------------|-----------------------5---------|
D |---------------------------------|---------------------5---5-3-----|
A |-3-------------------------------|(3)--------------------------5-\-|
E |---------------------------------|---------------------------------|
  1  &  2  &  3  &  4  &   1  &  2  &  3  &  4  &


CHORUS 2:

G |---------------------------------|---------------------------------|
D |---------------------------------|---------------------------------|
A |-------5-------------------------|-------------5---3-------5-------|
E |-3-------2---0---r---------------|-r-------------------------------|
  1  &  2  &  3  &  4  &   1  &  2  &  3  &  4  &

G |---------------------------------|---------------------------------|
D |---------------------------------|-------------8-------------------|
A |-------5---5---------------------|-----------------8-------5-------|
E |-3-------2---0---r---------------|-r-------------------------------|
  1  &  2  &  3  &  4  &   1  &  2  &  3  &  4  &

G |---------------------------------|---------------------------------|
D |---------------------------------|---------------------------------|
A |-------5---5---------------------|-------------3---3-------5-------|
E |-3-------2---0---r---------------|-r-------------------------------|
  1  &  2  &  3  &  4  &   1  &  2  &  3  &  4  &

                         a
G |---------------------------------|---------------------------------|
D |---------------------------------|---------------------------------|
A |-------5---5---------------------|------------7/8--7-------5-------|
E |-3-------2---0---r---------------|-r-------------------------------|
  1  &  2  &  3  &  4  &   1  &  2  &  3  &  4  &


CHORUS 3:

G |---------------------------------|---------------------------------|
D |---------------------------------|---------------------------------|
A |-------5---5---------------------|-------------3---3-------5-------|
E |-3-------2---0---r---------------|-r-------------------------------|
  1  &  2  &  3  &  4  &   1  &  2  &  3  &  4  &

G |---------------------------------|---------------------------------|
D |---------------------------------|---------------------------------|
A |-------5---5---------------------|-----------------8-------5-------|
E |-3-------2---2---0---r-----------|-r-----------6-------------------|
  1  &  2  &  3  &  4  &   1  &  2  &  3  &  4  &

G |---------------------------------|---------------------------------|
D |---------------------------------|---------------------------------|
A |-------5---5---------------------|-------------3---3-------5-------|
E |-3-------2---0---r---------------|-r-------------------------------|
  1  &  2  &  3  &  4  &   1  &  2  &  3  &  4  &

                         a
G |---------------------------------|---------------------------------|
D |---------------------------------|---------------------------------|
A |-------5---5---------------------|------------7/8--7-------5-------|
E |-3-------2---2---0---r-----------|-r-------------------------------|
  1  &  2  &  3  &  4  &   1  &  2  &  3  &  4  &


GUITAR SOLO:

G |---------------------------------|---------------------------------|
D |---------------------------------|---------------------------------|
A |---------------------------------|---------------------------------|
E |-5-----r---------5-----r-------5-|(5)--\---r---2-r-3-------2-------|
  1  &  2  &  3  &  4  &   1  &  2  &  3  &  4  &

G |---------------------------------|---------------------------------|
D |---------------------------------|---------------------------------|
A |---------------------------------|---------------------------------|
E |-5-----r---------5-----r-------5-|(5)5-3---2-r-2---3-------2-------|
  1  &  2  &  3  &  4  &   1  &  2  &  3  &  4  &

G |---------------------------------|---------------------------------|
D |-----------------7---------------|-------------4---4h5-4h5-4h5-4---|
A |-------------------7-------------|-----------0---0-----------------|
E |-5-----r-------------5---r-----5-|(5)--r---------------------------|
  1  &  2  &  3  &  4  &   1  &  2  &  3  &  4  &

G |---------------------------------|---------------------------------|
D |---------------------------------|---------------------------------|
A |---------------------------------|---------------------------------|
E |-5-----r---------5-----r-------5-|(5)5-3---2-r-2---3-------2-------|
  1  &  2  &  3  &  4  &   1  &  2  &  3  &  4  &


BREAKDOWN:

G |---------------------------------|---------------------------------|
D |-------------------------4-------|---------------------------------|
A |-2-----------4---5---------------|-----------------0-------4-------|
E |---------------------------------|-3-------------------------------|
  1  &  2  &  3  &  4  &   1  &  2  &  3  &  4  &

G |---------------------------------|---------------------------------|
D |---------------------------------|---------------------------------|
A |-2-------4-------5---------------|-----------------0-------1-------|
E |-------------------------2-------|-0-----------0-3-----------------|
  1  &  2  &  3  &  4  &   1  &  2  &  3  &  4  &

G |---------------------------------|---------------------------------|
D |-------------------------4-------|---------------------------------|
A |-2-----------4---5---------------|-----------------0-----------2---|
E |---------------------------------|-3-----------3-------------------|
  1  &  2  &  3  &  4  &   1  &  2  &  3  &  4  &

G |---------------------------------|---------------------------------|
D |---------------------------------|---------------------------------|
A |-3-------------------------------|-5-----4-----2---0---r-----------|
E |---------------------------------|---------------------------------|
  1  &  2  &  3  &  4  &   1  &  2  &  3  &  4  &


CHORUS 4:
                               a
G |---------------------------------|---------------------------------|
D |---------------------------------|---------------------------------|
A |-------7---7---------------------|-------------5---5------5/7------|
E |-5-------4---2---r---------------|-r-------------------------------|
  1  &  2  &  3  &  4  &   1  &  2  &  3  &  4  &

                           a
G |---------------------------------|----------------------------------|
D |---------------------------------|----------------------------------|
A |-------7---7---------------------|----------------8/10------7-------|
E |-5-------4---2---r---------------|-r-----------8--------------------|
  1  &  2  &  3  &  4  &   1  &  2  &  3  &  4  &

G |---------------------------------|---------------------------------|
D |---------------------------------|---------------------------------|
A |-------7---7---------------------|-------------5---5-------7-------|
E |-5-------4---2---r---------------|-r-------------------------------|
  1  &  2  &  3  &  4  &   1  &  2  &  3  &  4  &

G |---------------------------------|---------------------------------|
D |---------------------------------|---------------------------------|
A |-------7---7---------------------|-------------10--9-------7-------|
E |-5-------4---2---r---------------|-r-------------------------------|
  1  &  2  &  3  &  4  &   1  &  2  &  3  &  4  &


CHORUS 5:

G |---------------------------------|---------------------------------|
D |---------------------------------|---------------------------------|
A |-------7---7---------------------|-------------5---5-------7-------|
E |-5-------4---2---r---------------|-r-------------------------------|
  1  &  2  &  3  &  4  &   1  &  2  &  3  &  4  &

G |---------------------------------|---------------------------------|
D |---------------------------------|---------------------------------|
A |-------7---7---------------------|-------------10--10------7-------|
E |-5-------4---4---2---r-----------|-r-------------------------------|
  1  &  2  &  3  &  4  &   1  &  2  &  3  &  4  &

G |---------------------------------|---------------------------------|
D |---------------------------------|---------------------------------|
A |-------7---7---------------------|-------------5---5-------7-------|
E |-5-------4---2---r---------------|-r-------------------------------|
  1  &  2  &  3  &  4  &   1  &  2  &  3  &  4  &

G |---------------------------------|---------------------------------|
D |---------------------------------|---------------------------------|
A |-------7---7---------------------|-------------10--9-------7-------|
E |-5-------4---2---2---r-----------|-r-------------------------------|
  1  &  2  &  3  &  4  &   1  &  2  &  3  &  4  &


OUTRO:
  vf
G |---------------------------------|---------------------------------|
D |---------------------------------|---------------------------------|
A |-------7---7---------------------|-------------5---5-------7-------|
E |-5-------4---2---r---------------|-r-------------------------------|
  1  &  2  &  3  &  4  &   1  &  2  &  3  &  4  &

G |---------------------------------|----------------------------------|
D |---------------------------------|----------------------------------|
A |-------7---7---------------------|------------------10------7-------|
E |-5-------4---4---2---r-----------|-r-----------8h10-----------------|
  1  &  2  &  3  &  4  &   1  &  2  &  3  &  4  &

                                  vo
G |---------------------------------|---------------------------------|
D |---------------------------------|---------------------------------|
A |-------7---7---------------------|-------------5---5-------7-------|
E |-5-------4---2---r---------------|-r-------------------------------|
  1  &  2  &  3  &  4  &   1  &  2  &  3  &  4  &

THE END

Almost there ...

Sign in to get your own page with links to favourite songs and more. You are just one click away...

Login with Facebook Login with Google