Log in

One click and you are in

Login with Facebook Login with Google

Why sign up and log in

Guitar Tabs Explorer
Tsunekichi Suzuki guitar tabs for Omoide

Guitar tabs

Tuning: Standard (E A D G B E)

~Tsunekichi Suzuki - Omoide (思ひで) - Midnight Diner (深夜食堂) OP~

**************
normal tuning
**************

e|-----------2--------0-------------------|
B|--0--2--3--------2-----2--0-------------|
G|-----------------------------0--2--2----|
D|--------------2--------------0-----0----|
A|--------2--------0----------------------|
E|--------------------------3-------------|

e|-----------2--------0--------------2----|
B|--0--2--3--------2-----2--0-----3-------|
G|-----------------------------0----------|
D|--------------2-------------------------|
A|--------2--------0----------------------|
E|--------------------------3--------3----|

e|-----------5----5-----------------------|
B|--0--2--3-------------2--0--------------|
G|-------------2-----2--------0--2--2-----|
D|--------0-------------------------0-----|
A|----------------0-----------------------|
E|-------------------------3--------------|

e|-----------------------------------2----|
B|--3--2--0--------------2--0-----3-------|
G|--------------2-----2--------0----------|
D|-----------4----------------------------|
A|--------2--------0----------------------|
E|--------------------------3--------3----|

e|-----------2--------0-------------------|
B|--0--2--3--------2-----2--0-------------|
G|-----------------------------0--2--2----|
D|--------------2--------------0-----0----|
A|--------2--------0----------------------|
E|--------------------------3-------------|

e|-----------2--------0--------------2----|
B|--0--2--3--------2-----2--0-----3-------|
G|-----------------------------0----------|
D|--------------2-------------------------|
A|--------2--------0----------------------|
E|--------------------------3--------3----|

e|-----------5----5-----------------------|
B|--0--2--3-------------2--0--------------|
G|-------------2-----2--------0--2--2-----|
D|--------0-------------------------0-----|
A|----------------0-----------------------|
E|-------------------------3--------------|

e|-----------------------------------2----|
B|--3--2--0--------------2--0-----3--0----|
G|--------------2-----2--------0-----0----|
D|-----------4----------------------------|
A|--------2--------0----------------------|
E|--------------------------3--------3----|

↓ Add and view comments below ↓

What do you think about this song and these tabs?

Add your comments, questions, rant or a thumbs up below.

Almost there ...

Sign in to get your own page with links to favourite songs and more. You are just one click away...

Login with Facebook Login with Google