Log in

One click and you are in

Login with Facebook Login with Google

Why sign up and log in

Guitar Tabs Explorer
Trustcompany tabs for The war is over

Guitar tabs

Intro

|-----x---|
|-----x---|
|-----x---|
|-----0---|
|-----x---|
|-----x---|
chorus

|--x---x----x--x---x---x--|
|--x---x----x--x---x---x--|
|--10--10--10--10--10--10-|
|--10--10---0--10--10--10-|
|--8---10---0--10--8---10-|
|--8----x---0--10--8---10-|


verse (2x)

|-------------------------------|
|-------------------------------|
|--10--10--7--------------------|
|--10--10--7-----8-------10-----|
|--0---8---5----8------10-------|
|--0---8---5---8---8-10-----10--|


intro piece


chorus
throw this on the end

|-------------------------|
|-------------------------|
|-------------------------|
|--------5------8----10---|
|--------5-----8-----10---|
|--------5---8----8--10---|


intro


verse


chorus


bridge:

|---------------------------|
|---------------------------|
|-----10---10---------------|
|--10-8----0--10---5--7--8--|
|--8--8----0--10---5--7--8--|
|--8--8----0--10---5--7--8--|


|---------------------------|
|---------------------------|
|-----10---10------------10-|
|--10-8----0--10---5--7--10-|
|--8--8----0--10---5--7--8--|
|--8--8----0--10---5--7--8--|


|--x---x----x--x---|
|--x---x----x--x---|
|--10--10--10--10--|
|--10--10---0--10--|
|--8---10---0--10--|
|--8----x---0--10--|


chorus


|----------|
|----------|
|-----10---|
|--10-8----|
|--8--8----|
|--8--8----|


Thar she is mateys. Just figure out your strumming patterns and watch Kevs vid if you have any problems.

Almost there ...

Sign in to get your own page with links to favourite songs and more. You are just one click away...

Login with Facebook Login with Google