Log in

One click and you are in

Login with Facebook Login with Google

Why sign up and log in

Guitar Tabs Explorer
Trustcompany tabs for Take it all

Guitar tabs

This song is in drop A chord diagramC#C#

The last tab did not separate lead and rhythm, and instead combined them.
I guess some moderators aren't smart enough to figure that out.
its a pretty simple tab but the verse lead is hard to hear, so I was unable to tab it

intro lead

|----------------------------|
|----------------------------|
|----------------------------|
|----------------------------|
|----------------------------|
|-2-2-0-2-0-2-2-0-2-3-2-0-2--|

              harmonics
|----------------------------|
|----------------------------|
|----------------------------|
|----------------------------|
|----------------------------|
|-2-2-0-2-0-2-2-5-5-5--------|


intro rhythm


|------------------------------|
|------------------------------|
|------------------------------|
|-22---------------------------|
|-22---------------------------|
|-22---------------------------|


|------------------------------|
|------------------------------|
|------------------------------|
|-22---------------------------|
|-22---------------------------|
|-22---------------------------|


intro pt 2, intro lead continues


|-----------------------------|
|-----------------------------|
|-----------------------------|
|-2202-2202-0232--------------|
|-2202-2202-0232--------------|
|-2202-2202-0232--------------|


VERSE

pm..............................
|-------------------------------|
|-------------------------------|
|-------------------------------|
|-------------------------------|
|----------------------3333~ ---|
|-2222~ 0000~ 3333~ ------------|


PRECHORUS

gtr 1

|--------------------------------|
|--------------------------------|
|--------------------------------|
|-22----- 0-22---- --------------|
|-22----- 0-22---- --------------|
|-22------0-22-------------------|

gtr 2
|--------------------------------|
|--------------------------------|
|--------------------------------|
|----555~ ------55~--------------|
|----333~ ------33~--------------|
|--------------------------------|


CHORUS

|-------------------------------|
|-------------------------------|
|-----------555-----------------|
|-222~ 555~ 555~ ---------------|
|-222~ 555~ 333~ ---------------|
|-222~ 555~ --------------------|


intro


verse


pre chorus


chorus


intro


intro pt2


chorus


prechorus-end with

|---------|
|---------|
|---------|
|--- 0----|
|--- 0----|
|----0----|

Almost there ...

Sign in to get your own page with links to favourite songs and more. You are just one click away...

Login with Facebook Login with Google