Log in

One click and you are in

Login with Facebook Login with Google

Why sign up and log in

Guitar Tabs Explorer
Trustcompany tabs for Hover

Guitar tabs

-------------------------------------------------------------------------------
                             Hover - Trustcompany
-------------------------------------------------------------------------------
Saw a few tabs on here that didn't quite have it right. Kudos to Andrew M and Fenderman
to breaking ground.
Guys a lot of these are suspended chords, you will here it.

video for help https://www.youtube.com/watch v=ic2mJT0q5BU
Tuning:  Drop A chord diagramC#C#

Guitar 2: Effect:  Clean sound with chorus pedal
|--------5---------5--------5-------------------------------------------------|
|-----------------------6---------(4 times)-----------------------------------|
|------6-------6--------------------------------------------------------------|
|----0------0---------0-------------------------------------------------------|
|-----------------------------------------------------------------------------|
|-----------------------------------------------------------------------------|
Guitar 1: Distortion
|----------------------------------------------------------------------------|
|----------------------------------------------------------------------------|
|-11-11-11-11-14-14--14--14-(7)(7)(7)(7)(7)(7)(7)(7)-------------------------|
|-11-11-11-11-14-14--14--14--7--7--7--7--7--7--7--7--------------------------|
|-9--9--9--9--12-12--12--12--5--5--5--5--5--5--5--5----(4 times)-------------|
|-9--9--9--9--12-12--12--12--5--5--5--5--5--5--5--5--------------------------|


Verse: Guitar 1
|----------------------------------------------------------------|
|----------------------------------------------------------------|
|----------------------------------------------------------------|
|-4--4--4-4--4-6--6-6-0-0-0-0-0---------(4 times)----------------|
|-4--4--4-4--4-4--4-4-0-0-0-0-0----------------------------------|
|-4--4--4-4--4-4--4-4-0-0-0-0-0----------------------------------|


Pre-chorus:
|---------------------------------------------------------------------------|
|---------------------------------------------------------------------------|
|---------------------------------------------------------------------------|
|-4444--4444--4-4-0000--0000-0-0--------------------------------------------|
|-4444--4444--4-4-0000--0000-0-0-----(2 times)------------------------------|
|-4444--4444--4-4-0000--0000-0-0--------------------------------------------|


Bridge 1: * are harmonics. Scratch that stuff good.
-----------|
-----------|
-----------|
-44-4-555*-|
-44-4-555*-|
-44-4-555*-|

Bridge 2:
---------------------------------------------------------------------------|
---------------------------------------------------------------------------|
---------------------------------------------------------------------------|
-4444-0000-----------------------------------------------------------------|
-4444-0000---(8 times)-----------------------------------------------------|
-4444-0000-----------------------------------------------------------------|

Almost there ...

Sign in to get your own page with links to favourite songs and more. You are just one click away...

Login with Facebook Login with Google