Log in

One click and you are in

Login with Facebook Login with Google

Why sign up and log in

Guitar Tabs Explorer
Trustcompany tabs for Downfall

Guitar tabs

Okay people, I've taken another look and although there are some decent tabs for this song, not one is close
enough for my tastes.

video for reference https://www.youtube.com/watch v=v81ssPNGdvE

Hope you like it, kudos to the other tabs for making it go quickly.

Almost all of palmers songs are in drop A chord diagramC#C# fyi
main riff
            3x           1x
|------------|------------|
|------------|------------|
|------------|------------|
|-022-022-02-|-055-555-55-|
|-022-022-02-|-033-333-33-|
|-022-022-02-|-033-333-33-|

lead
            3x                          1x
|-000-000-00-|-0-0--0--0--0--0--0--0--0--|
|-xxx-xxx-xx-|-x-x--x--x--x--x--x--x--x--|
|-999-999-99-|-9-10-10-10-10-10-10-10-10-|
|-xxx-xxx-xx-|-x-x--x--x--x--x--x--x--x--|
|-777-777-77-|-7-8--8--8--8--8--8--8--8--|
|------------|---------------------------|


pre-chorus #1
                        3x           1x           3x          1x
|--------------|------------|------------|------------|-----------|
|--------------|------------|------------|------------|--------xx-|
|-12-12--12-12-|------------|------------|------------|--------xx-|
|-12-12--12-12-|-022-022-02-|-055-555-55-|-022-022-02-|--------xx-|
|-10-10--10-10-|-022-022-02-|-033-333-33-|-022-022-02-|-5*-5*--xx-|
|-10-10--10-10-|-022-022-02-|-033-333-33-|-022-022-02-|-5*-5*--xx-|

chorus

|-----------------------------------------------------------------------|
|-----------------------------------------------------------------------|
|-4444444444444444-5555555555555555-7777777777777777-7777777777777777/4-|
|-2222222222222222-5555555555555555-7777777777777777-0000000000000000---|
|-2222222222222222-3333333333333333-5555555555555555-0000000000000000---|
|-2222222222222222------------------5555555555555555-0000000000000000---|


verse riff
            3x           1x
|------------|------------|
|------------|------------|
|------------|------------|
|-022-022-02-|-055-555-55-|
|-022-022-02-|-033-333-33-|
|-022-022-02-|-033-333-33-|

lead
            3x                          1x
|-000-000-00-|-0-0--0--0--0--0--0--0--0--|
|-xxx-xxx-xx-|-x-x--x--x--x--x--x--x--x--|
|-999-999-99-|-9-10-10-10-10-10-10-10-10-|
|-xxx-xxx-xx-|-x-x--x--x--x--x--x--x--x--|
|-777-777-77-|-7-8--8--8--8--8--8--8--8--|
|------------|---------------------------|


pre-chorus #2

|-----------------|------------|-----------------|-----|
|-----------------|------------|-----------------|-----|
|-----------------|------------|-----------------|-----|
|-22--------------|-2----------|-22--------------|-0-3-|
|-22-5*5*5*5*5*5*-|-2-5*5*5*5*-|-22-5*5*5*5*5*5*-|-0-3-|
|-22-5*5*5*5*5*5*-|-2-5*5*5*5*-|-22-5*5*5*5*5*5*-|-0-3-|


chorus


|-----------------------------------------------------------------------|
|-----------------------------------------------------------------------|
|-4444444444444444-5555555555555555-7777777777777777-7777777777777777/4-|
|-2222222222222222-5555555555555555-7777777777777777-0000000000000000---|
|-2222222222222222-3333333333333333-5555555555555555-0000000000000000---|
|-2222222222222222------------------5555555555555555-0000000000000000---|


chorus lead- strum it as you would the chorus
2x
|-------------|------|
|-------------|------|
|-4--5--7--7--|---11-|
|-x--x--x--x--|---x--|
|-x--3--x--5--|---9--|
|-2--x--5-----|------|

pre-bridge

|------------------|-----------------|
|------------------|-----------------|
|------------------|-----------------|
|------------------|-----------------|
|------3----3----3-|-----3----3------|
|--0-2---02---02---|-0-2---02---02---|


bridge
                  3x                  1x
|-----------------|-------------------|
|-----------------|-------------------|
|-----------------|-------------------|
|-0-2---02---02---|-0-2---02----------|
|-0-2-3-02-3-02-3-|-0-2-3-02-5*5*5*5*-|
|-0-2---02---02---|-0-2---02-5*5*5*5*-|


chorus

|-----------------------------------------------------------------------|
|-----------------------------------------------------------------------|
|-4444444444444444-5555555555555555-7777777777777777-7777777777777777/4-|
|-2222222222222222-5555555555555555-7777777777777777-0000000000000000---|
|-2222222222222222-3333333333333333-5555555555555555-0000000000000000---|
|-2222222222222222------------------5555555555555555-0000000000000000---|

Final chorus lead

|-------------|------|
|-------------|------|
|-4--5--7--7--|---11-|
|-x--x--x--x--|---x--|
|-x--3--x--5--|---9--|
|-2--x--5-----|------|

|--------------------|
|--------------------|
|--14-8-6-8-12-11-6--|
|--x--x-x-x-x--x--x--|
|--12-6-4-6-10-9--4--|
|--------------------|

outtro

|-----------------|------------|-----------------|-----|
|-----------------|------------|-----------------|-----|
|-----------------|------------|-----------------|-----|
|-22--------------|-2----------|-22--------------|-0-3-|
|-22-5*5*5*5*5*5*-|-2-5*5*5*5*-|-22-5*5*5*5*5*5*-|-0-3-|
|-22-5*5*5*5*5*5*-|-2-5*5*5*5*-|-22-5*5*5*5*5*5*-|-0-3-|

That should be it, throw a few bends in for the lead, it really pulls the song together imo.

Almost there ...

Sign in to get your own page with links to favourite songs and more. You are just one click away...

Login with Facebook Login with Google