Log in

One click and you are in

Login with Facebook Login with Google

Why sign up and log in

Guitar Tabs Explorer
Trust Company tabs for Slipping away

Guitar tabs

Band: Trust Company
Album: The Lonely Position Of Neutral
Released: July 23, 2002
Tabbed: By Gregory Luke

Tuning: Standard - E, A, D, G, B, A chord diagramE MajorE
Verse
----------------------
--14-----------------
------13--13---------
----------------11---
----------------------
----------------------


Verse Part 2
--------------------
--16--14------------
-----------13-------
---------------11---
--------------------
---------------------


Chorus
--------------------
--------------------
-----6--9-----------
--7--6--9--9--------
--7--4--7--9--------
--5--------7--------
Repeat the chorus as many times as you need.

Almost there ...

Sign in to get your own page with links to favourite songs and more. You are just one click away...

Login with Facebook Login with Google