Log in

One click and you are in

Login with Facebook Login with Google

Why sign up and log in

Guitar Tabs Explorer
Trueno bass tabs for Dance crip

Bass tabs

Key: C


Intro:

G|---------------------------------------------------------------------------|
D|---------------------------------------------------------------------------|
A|---------------------------------------------------------------------------|
E|--0--1-0--5--3-1-0----0--1-0--5--3-1-0----0-0-0-0--1-0--5--3-1-0-----------|

G|---------------------------------------------------------------------------|
D|---------------------------------------------------------------------------|
A|---------------------------------------------------------------------------|
E|--0--1-0--5--3-1-0---------------------------------------------------------|


Chorus:

G|---------------------------------------------------------------------------|
D|---------------------------------------------------------------------------|
A|---------------------------------------------------------------------------|
E|--0--1-0--5--3-1-0----0--1-0--5--3-1-0----0-0-0-0--1-0--5--3-1-0-----------|

G|---------------------------------------------------------------------------|
D|---------------------------------------------------------------------------|
A|---------------------------------------------------------------------------|
E|--0--1-0--5--3-1-0---------------------------------------------------------|


Verse 1:
         P
G|---------------------------------------------------------------------------|
D|---------------0h2---------------------7\5---------------------------------|
A|-------------------------------------------7\5-----------------------------|
E|--0--1-0--5--3--------0--1-0--5--3-1-0---------7\5-2\0---------------------|

G|---------------------------------------------------------------------------|
D|---------------------------------------------------------------------------|
A|---------------------------------------------------------------------------|
E|--0--1-0--5--3-1-0----0--1-0--5--3-1-0-------------------------------------|


Chorus:

G|---------------------------------------------------------------------------|
D|---------------------------------------------------------------------------|
A|---------------------------------------------------------------------------|
E|--0--1-0--5--3-1-0--12\--0--1-0--5--3-1-0--/12--10\------------------------|


Refrain:

G|---------------------------------------------------------------------------|
D|---------------------------------------------------------------------------|
A|---------------------------------------------------------------------------|
E|--0--1-0--5--3-1-0----0--1-0--5--3-1-0-----0--1-0--5--3-1-0----------------|

G|---------------------------------------------------------------------------|
D|---------------------------------------------------------------------------|
A|---------------------------------------------------------------------------|
E|--0--1-0--5--3-1-0---------------------------------------------------------|


Verso 2:

G|---------------------------------------------------------------------------|
D|---------------------------------------------------------------------------|
A|---------------------------------------------------------------------------|
E|--0--1-0--5-----------0-------------------0--1-0--5--3-1-0-----------------|

G|---------------------------------------------------------------------------|
D|---------------------------------------------------------------------------|
A|---------------------------------------------------------------------------|
E|--0--1-0--5--3-1-0----0--1-0--5--3-1-0----0--1-0--5--3-1-0-----------------|


Refrain:

G|---------------------------------------------------------------------------|
D|---------------------------------------------------------------------------|
A|---------------------------------------------------------------------------|
E|--0-0-0-0--1-0--5--3-1-0----0--1-0--5--3-1-0----0-0-0-0--1-0--5--3-1-0-----|

G|---------------------------------------------------------------------------|
D|---------------------------------------------------------------------------|
A|---------------------------------------------------------------------------|
E|--0--1-0--5--3-1-0---------------------------------------------------------|


Chorus:

G|---------------------------------------------------------------------------|
D|---------------------------------------------------------------------------|
A|---------------------------------------------------------------------------|
E|--0-0-0-0--1-0--5--3-1-0----0--1-0--5--3-1-0----0--1-0--5------------------|


Outro:

G|---------------------------------------------------------------------------|
D|---------------------------------------------------------------------------|
A|---------------------------------------------------------------------------|
E|--0--1-0--5--3-1-0----0--1-0--5--3-1-0----0-0-0-0--1-0--5--3-1-0-----------|

G|---------------------------------------------------------------------------|
D|---------------------------------------------------------------------------|
A|---------------------------------------------------------------------------|
E|--0--1-0--5--3-1-0---------------------------------------------------------|

☠☠☠☠☠☠☠☠☠☠☠☠☠☠☠☠☠☠☠☠☠☠☠☠☠☠☠☠☠☠☠☠☠☠☠☠

| h  Hammer-on
| /  Slide up
| \  Slide down
| P  Pop

☠☠☠☠☠☠☠☠☠☠☠☠☠☠☠☠☠☠☠☠☠☠☠☠☠☠☠☠☠☠☠☠☠☠☠☠

Almost there ...

Sign in to get your own page with links to favourite songs and more. You are just one click away...

Login with Facebook Login with Google