Log in

One click and you are in

Login with Facebook Login with Google

Why sign up and log in

Guitar Tabs Explorer
Trower Robin tabs for About to begin

Guitar tabs with lyrics

Robin Trower

About to Begin
Great song form the awesome "Bridge of Sighs" album.  The tab book is
out, but not yet in the UK, so here's my tab so far..ill be buying the
book when I can tho!


-Fade in-

-intro guitar-


If you stand in the light you get the feel of the ride,

And the music that plays in your ears.

In your head you can here a voice so sweet and clear,

And the music that plays in your head.

As it flows up from the ground,

Taking all that here that sound,

Close your eyes, it's about to begin.


-solo-


Hardlty daring to breathe a new life to you perceive,

You try hard not to break the spell.

While at once it seems both, so far and yet so close,
If you reach out to touch, it will be gone.
As it flows up from the ground,
Taking all who hear that sound
Close your eyes, its about to begin
Close your eyes, its about to begin
Close your eyes, its about to begin
Close your eyes, its about to begin


-Outro-


h        = hammer on

p        = pull off

tr       = trill (alternate between two notes fast (hammer on/pul off
fast)

/        = slide up

\        = slide down

~        = vibrato

(X)      = Ghost note (applied quieter when on own, or in chord)

x        = mute string

-X-(Y)-  = bend X note to Y note




Normal tuning: EADGBe


------------------------------------------------------------------10-------10---
--7(8)7~~-------------------------------7(8)7~~--7-8-10(12)----12----10-10(12)10
-----------6(7)7~~--6-7---9(10)9-9\7~~------------------------------------------
--------------------------------------------------------------------------------
--------------------------------------------------------------------------------
--------------------------------------------------------------------------------


-------------------------------------------------------------------------------
p8~~--7h8p7---------------------------------------------------------------------
-------------7/9\7----6h7/9\7---------------------------------------------------
--------------------------------------------------------------------------------
-------------------------------------------------------------------------------
-------------------------------------------------------------------------------

Almost there ...

Sign in to get your own page with links to favourite songs and more. You are just one click away...

Login with Facebook Login with Google