Log in

One click and you are in

Login with Facebook Login with Google

Why sign up and log in

Guitar Tabs Explorer
Tronic tabs for Tele kulia

Guitar tabs

intro

|-----------------------------------------------------|
|-----------------------------------------------------|
|-----------------------------------------------------|
|-4-2-0--2-4----4-2-0--2-4----4-2-0--2-4---5-5-5-4-4--|
|-----------------------------------------------------|
|-----------------------------------------------------|

|----------------------------------------------------------|
|----------------------------------------------------------|
|----------------------------------------------------------|
|--4-2-0--2-4----4-2-0--2-4----4-2-0--2-4---5-5-5-4-4-0~~~-|
|----------------------------------------------------------|
|----------------------------------------------------------|
verso:
 me siento mal....
|-------------------------------------------|
|-------------------------------------------|
|-------------------------------------------|
|--2-2--2-2--------7~~--4~~--2-2--2-2-------|
|--0-0--0-0--5-5---5~~--2~~--0-0--0-0--5-5--|
|------------3-3-----------------------3-3--|

KORO:
|-------------------|
|-------------------|
|----------7---9----|
|--5---4---7---9----| (x2)
|--5---5---5---7----|
|--3---2------------|


intro:

|---------------------------------------------------------|
|---------------------------------------------------------|
|---------------------------------------------------------|
|-4-2-0--2-4----4-2-0--2-4----4-2-0--2-4---5-5-5-4-4-0~~~-|
|---------------------------------------------------------|
|---------------------------------------------------------|

verso:
 vuelvo a sonar...
|-------------------------------------------|
|-------------------------------------------|
|-------------------------------------------|
|--2-2--2-2--------7~~--4~~--2-2--2-2-------|
|--0-0--0-0--5-5---5~~--2~~--0-0--0-0--5-5--|
|------------3-3-----------------------3-3--|


KORO:
|-------------------|
|-------------------|
|----------7---9----|
|--5---4---7---9----| (x2)
|--5---5---5---7----|
|--3---2------------|

fucking tele reculia.
|------------------|
|------------------|
|------------------|
|-5------9~--------|
|-5-(X8)-7~--------|
|-3----------------|


|--------------------------------------------------------------------|
|--------------------------------------------------------------------|
|-7--7--6-----2--2--4-----7--7-7-----7--7-7-----6--6-6------6--6-6---|
|--9-----7-----4-----5-----9----9------9----9-----7----7-----7-----7-|
|--------------------------------------------------------------------|
|--------------------------------------------------------------------|


|----------------------------------------------|
|----------------------------------------------|
|---2--2-2-----2--2-2-----4--4-4-----4--4-4----|
|----4-----4-----4----4-----5----5----5-----5--|
|----------------------------------------------|
|----------------------------------------------|


|-------------------|
|-------------------|
|----------7---9----|
|--5---4---7---9----| (x2)
|--5---5---5---7----|
|--3---2------------|


KORO:
|-------------------|             |-------------------|
|-------------------|             |-------------------|
|----------7---9----|             |-------------------|    FIN!
|--5---4---7---9----| (x3) .....  |-5------9~~--7-----|
|--5---5---5---7----|             |-5-(x8)-7~~--5-----|
|--3---2------------|             |-3-----------------|



tElE KuLeA Te oDiO MaS Ke lA MiErDa!!
jaja!..y se la dediko a todos esos putos programas
de la TV.chilena! ke solo muestran mierda! ..komo por ejemplo..''MEKANO' 'ROJO'
Y MUXOS OTROS MAS!!

Almost there ...

Sign in to get your own page with links to favourite songs and more. You are just one click away...

Login with Facebook Login with Google