Log in

One click and you are in

Login with Facebook Login with Google

Why sign up and log in

Guitar Tabs Explorer
Trois Cafés Gourmands bass tabs for A nos souvenirs

A Nos Souvenirs bass tab - Trois Cafés Gourmands

Trois Cafés Gourmands bass tabs for A nos souvenirs

Bass tabs

Tuning: Standard (E A D G)


Intro:

G|--------------------------------------------------|--------------------------------------------------|
D|--------------------------------------------------|--------------------------------------------------|
A|--------------------------------------------------|--------------------------------------------------|
E|--------------------------------------------------|--------------------------------------------------|

....

bass starts on verse 3 : "On veut du Claudie musette..."
Verse 3:

G|--------------------------------------------------|--------------------------------------------------|
D|--------------------------------------------------|--------------------------------------------------|
A|4---4--4-7--------------7---7--7------------------|4---4--4-7--------------7---7--7------------------|
E|----------5---5-5-5-7-5----------4-5-7---7-7-7-5-7|----------5---5-5-5-7-5----------4-5-7---7-7-7-5-7|

G|--------------------------------------------------|--------------------------------------------------|
D|--------------------------------------------------|--------------------------------------------------|
A|4---4--4-7--------------7---7--7------------------|4---4--4-7--------------7---7--7------------------|
E|----------5---5-5-5-7-5----------4-5-7---7-7-7-5-7|----------5---5-5-5-7-5----------4-5-7---7-7-7-5-7|

G|--------------------------------------------------|--------------------------------------------------|
D|--------------------------------------------------|--------------------------------------------------|
A|4---4--4-7--------------7---7--7------------------|4---4--4-7--------------7---7--7------------------|
E|----------5---5-5-5-7-5----------4-5-7---7-7-7-5-7|----------5---5-5-5-7-5----------4-5-7------------|


Bridge:

G|--------------------------------------------------|--------------------------------------------------|
D|--------------------------------------------------|--------------------------------------------------|
A|4-----------------------7-------------------------|4-----------------------7-------------------------|
E|----------5---------------------------7-----------|----------5---------------------------7-----------|


Outro:

G|-----------------------------------|-----------------------------------|-----------------------------------|
D|-----------------------------------|-----------------------------------|-----------------------------------|
A|4---4-----------7---7-----------2-3|4---4-----------7---7-----------2-3|4---4-----------7---7-----------2-3|
E|--4---4-5-0-5-7---7---4-4-5-7-2----|--4---7-5-0-5-7---7---4-4-5-7-2----|--4---4-5-0-5-7---7---4-4-5-7-2----|

G|--------------------------------------------------|----------------------------------------------------|
D|--------------------------------------------------|----------------------------------------------------|
A|4-----------------------7-------------------------|4-----------------------7---------------------------|
E|----------5---------------------------7-----------|----------5---------------------------7------------4|

Almost there ...

Sign in to get your own page with links to favourite songs and more. You are just one click away...

Login with Facebook Login with Google