Log in

One click and you are in

Login with Facebook Login with Google

Why sign up and log in

Guitar Tabs Explorer
The Troggs bass tabs for With a girl like you

Bass tabs with lyrics

With A Girl Like You
The Troggs
Written by Reg Presley; released as a single with "I Want You" as the B-side.


Intro:
G|------- ------- ------- -------|------- ------- ------- -------|
D|-------------------------------|-------------------------------|
A|-------------------------------|-------------------------------|
E|-------------------------------|-------------------------------|

G|------- ------- ------- -------|------- ------- ------- -------|
D|-------------------------------|-------------------------------|
A|8-----------8-----------8------|10----------10-----------------|
E|-------------------------------|-------------------------------|
                               I


Verse:
G|------- ------- ------- -------|------- ------- 10--9-- -------|
D|--------------------10------10-|12----------12-----------------|
A|10----------10--12-------------|-------------------------------|
E|-------------------------------|-------------------------------|
 want    to spend my  life      with  like
                        a girl

G|------- ------- ------- -------|------- ------- 10--9-- -------|
D|--------------------10------10-|12----------12-----------------|
A|10----------10--12-------------|-------------------------------|
E|-------------------------------|-------------------------------|
 you,    papapa- pa -  pa,       papapa- pa,


G|------- ------- ------- -------|------- ------- 10--9-- -------|
D|--------------------10------10-|12----------12-----------------|
A|10----------10--12-------------|-------------------------------|
E|-------------------------------|-------------------------------|
 And     do all the   things     that  me   to,
                        you
                         want
G|------- ------- ------- -------|------- ------- 10--9-- -------|
D|--------------------10------10-|12----------12-----------------|
A|10----------10--12-------------|-------------------------------|
E|-------------------------------|-------------------------------|
       papapa- pa -  pa,       papapa- pa.

G|------- ------- ------- -------|------- ------- ------- -------|
D|------------7-----------10-----|------------9-----------12-----|
A|8------------------------------|10-----------------------------|
E|-------------------------------|-------------------------------|
     Till the time has  come              that


G|------- ------- ------- -------|------- ------- ------- -------|
D|------------7-----------10-----|-------------------------------|
A|8------------------------------|10-----------------------------|
E|-------------------------------|-------------------------------|
 we might  live  as     one,    Can dance with you,
                        I

G|------- ------- ------- -------|------- ------- 10--9-- -------|
D|--------------------10------10-|12----------12-----------------|
A|10----------10--12-------------|-------------------------------|
E|-------------------------------|-------------------------------|
       papapa- pa -  pa,       papapa- pa,


G|------- ------- ------- -------|------- ------- 10--9-- -------|
D|--------------------10------10-|12----------12-----------------|
A|10----------10--12-------------|-------------------------------|
E|-------------------------------|-------------------------------|
       papapa- pa -  pa,       papapa- pa.   I


Verse:
G|------- ------- ------- -------|------- ------- 10--9-- -------|
D|--------------------10------10-|12----------12-----------------|
A|10----------10--12-------------|-------------------------------|
E|-------------------------------|-------------------------------|
 tell    by way you   dress      that  real  fine,
        the               you're
                         so
G|------- ------- ------- -------|------- ------- 10--9-- -------|
D|--------------------10------10-|12----------12-----------------|
A|10----------10--12-------------|-------------------------------|
E|-------------------------------|-------------------------------|
       papapa- pa -  pa,       papapa- pa,


G|------- ------- ------- -------|------- ------- 10--9-- -------|
D|--------------------10------10-|12----------12-----------------|
A|10----------10--12-------------|-------------------------------|
E|-------------------------------|-------------------------------|
 And     by way you   talk      that  my   kind,
        the               you're
                         just
G|------- ------- ------- -------|------- ------- 10--9-- -------|
D|--------------------10------10-|12----------12-----------------|
A|10----------10--12-------------|-------------------------------|
E|-------------------------------|-------------------------------|
       papapa- pa -  pa,       papapa- pa.


G|------- ------- ------- -------|------- ------- ------- -------|
D|------------7-----------10-----|------------9-----------12-----|
A|8------------------------------|10-----------------------------|
E|-------------------------------|-------------------------------|
     Girl,  should it  be               that
       why

G|------- ------- ------- -------|------- ------- ------- -------|
D|------------7-----------10-----|-------------------------------|
A|8------------------------------|10-----------------------------|
E|-------------------------------|-------------------------------|
 you don't  no -  tice    me?     Can dance with you,
                        I

G|------- ------- ------- -------|------- ------- 10--9-- -------|
D|--------------------10------10-|12----------12-----------------|
A|10----------10--12-------------|-------------------------------|
E|-------------------------------|-------------------------------|
       papapa- pa -  pa,       papapa- pa,


G|------- ------- ------- -------|------- ------- 10--9-- -------|
D|--------------------10------10-|12----------12-----------------|
A|10----------10--12-------------|-------------------------------|
E|-------------------------------|-------------------------------|
       papapa- pa -  pa,       papapa- pa.


Bridge:
G|------- ------- ------- -------|------- ------- ------- -------|
D|-------------------------------|-------------------------------|
A|8-----------8------------------|8-----------8---8--------------|
E|-------------------------------|-------------------------------|
     Ba- by, ba- by,         is there no chance?


G|------- ------- ------- -------|------- ------- ------- -------|
D|-------------------------------|-------------------------------|
A|-------------------------------|-------------------------------|
E|8-----------8---8--------------|8-----------8---8--------------|
     I  can take you        for the last time.


G|------- ------- ------- -------|------- ------- ------- -------|
D|-------------------------------|-------------------------------|
A|8-----------8---8--------------|8-----------8---8--------------|
E|-------------------------------|-------------------------------|
     All night  yeah,        I've been waitin',
         long,

G|------- ------- ------- -------|------- ------- ------- -------|
D|-------------------------------|-------------------------------|
A|10--10--10--10--10--10--10--10-|10--10--10--10--10--10--10-----|
E|-------------------------------|-------------------------------|
     now   be   no   he -  si -  ta -  tin'.
       there'll

Verse:
G|------- ------- ------- -------|------- ------- 10--9-- -------|
D|--------------------10------10-|12-----------------------------|
A|10----------10--12-------------|-------------------------------|
E|-------------------------------|-------------------------------|
 So     be- fore this  dance      has   the   end,
                         reached

G|------- ------- ------- -------|------- ------- 10--9-- -------|
D|--------------------10------10-|12----------12-----------------|
A|10----------10--12-------------|-------------------------------|
E|-------------------------------|-------------------------------|
       papapa- pa -  pa,       papapa- pa,   To


G|------- ------- ------- -------|------- ------- 10--9-- -------|
D|--------------------10------10-|12----------12-----------------|
A|10----------10--12-------------|-------------------------------|
E|-------------------------------|-------------------------------|
 you     a - cross the  floor      my love I'll  send,


G|------- ------- ------- -------|------- ------- 10--9-- -------|
D|--------------------10------10-|12----------12-----------------|
A|10----------10--12-------------|-------------------------------|
E|-------------------------------|-------------------------------|
       papapa- pa -  pa,       papapa- pa.


G|------- ------- ------- -------|------- ------- ------- -------|
D|------------7-----------10-----|------------9-----------12-----|
A|8------------------------------|10-----------------------------|
E|-------------------------------|-------------------------------|
     I just hope and  pray              that


G|------- ------- ------- -------|------- ------- ------- -------|
D|------------7-----------10-----|-------------------------------|
A|8------------------------------|10-----------------------------|
E|-------------------------------|-------------------------------|
 I   find a  way to   say:      Can dance with you,
                        I

G|------- ------- ------- -------|------- ------- 10--9-- -------|
D|--------------------10------10-|12----------12-----------------|
A|10----------10--12-------------|-------------------------------|
E|-------------------------------|-------------------------------|
       papapa- pa -  pa,       papapa- pa,


G|------- ------- ------- -------|------- ------- 10--9-- -------|
D|--------------------10------10-|12----------12-----------------|
A|10----------10--12-------------|-------------------------------|
E|-------------------------------|-------------------------------|
       papapa- pa -  pa...
Fade out...

Almost there ...

Sign in to get your own page with links to favourite songs and more. You are just one click away...

Login with Facebook Login with Google