Log in

One click and you are in

Login with Facebook Login with Google

Why sign up and log in

Guitar Tabs Explorer
Tristania tabs for Sirene

Guitar tabs

I lurv this song. Makes me think of a medieval country side with a lonely
bard playing this song.

This tab is very simple. Its only an A chord diagramA augmentedA minor. I made it easier to play

h-hammer
part one
E-------0----------------------------------------------------
B-----------3--1--0h--1--0h---------------0--1h------
G-2-2----------------------------2--0-----------------2--
D-----------------------------------------2-2----------------
A------------------------------------------------------------
E------------------------------------------------------------


part two
E-------0----------------------------------------------------
B-----------3--1--0h--1--0h---------------0-------------
G-2-2----------------------------2--0----2----2-----------
D-----------------------------------------------------------
A------------------------------------------------------------
E------------------------------------------------------------


now repeat part one then part two. Play these two parts continously then fade
out thwen the piano enters.

+this is my first time to submit a tab. Apologies If I messed this one up+

+If you have any comments/questions you can email me at makabayan_48@yahoo.com.+

Almost there ...

Sign in to get your own page with links to favourite songs and more. You are just one click away...

Login with Facebook Login with Google