Log in

One click and you are in

Login with Facebook Login with Google

Why sign up and log in

Guitar Tabs Explorer
Tricot guitar tabs for Melon soda

Guitar tabs with lyrics

Tuning: Standard (E A D G B E)

0:06 Lead Guitar:
   |pm|                |pm|
E|---------------------------------------------|
B|---------------------------------------------|
G|-----------------9-------------------9--11h--|  x6
D|-------9\11----------------9/11--------------|
A|-------------11------------------11----------|
E|--7\9-----------------7\9--------------------|

0:24 Lead Guitar:
              |pm|
E|--------------------|
B|--------------------|
G|-----------9--------|   x8
D|-----------------9--|
A|--0--9/11-----0-----|
E|--------------------|

0:36 Rhythm Guitar:
E|----------------------------------------------------|
B|----------------------------------------------------|
G|----------------------------------------------------|
D|--4--6--9----4--6--9--13----4--6--9----4--6--9--13--|
A|--2--4--7----2--4--7--11----2--4--7----2--4--7--11--|
E|----------------------------------------------------|

0:36 Lead Guitar:
   |pm|                |pm|
E|---------------------------------------------|
B|---------------------------------------------|
G|-----------------9-------------------9--11h--|  x6
D|-------9\11----------------9/11--------------|
A|-------------11------------------11----------|
E|--7\9-----------------7\9--------------------|

0:49 Lead Guitar:
  Let ring
E|-----------|
B|-----------|
G|--4--6-----|
G|-----------|
A|-----------|
E|--4--5-----|

0:49 Rhythm Guitar:
E|-----------------------|
B|-----------------------|
G|--------------9--------|x8
D|--------------------9--|
A|--0--9h--11h-----0-----|
E|-----------------------|

1:00 Rhythm Guitar:
E|--0----------------------------------------------------|
B|--0----------------------------------------------------|
G|--0----------------------------------------------------|
D|-----4--6--9----4--6--9--13----4--6--9----4--6--9--13--|
A|-----2--4--7----2--4--7--11----2--4--7----2--4--7--11--|
E|-------------------------------------------------------|

1:00 Lead Guitar:
E|------------------------------------9--7--0--|
B|-------------------9-----5-------5-----------|
G|---------------11-----8-----4\6--------------|
G|----------9----------------------------------|
A|-------9-----9-------------------------------|
E|--3/9----------------------------------------|

1:06 Lead Guitar:
E|--------------------------------9--7--0--|
B|---------------9-----5-------5-----------|
G|-----------11-----8-----4\6--------------|
G|-----9-----------------------------------|
A|--9-----9--------------------------------|
E|-----------------------------------------|

1:12 Rhythm Guitar:
     |pm| |pm|      |pm| |pm|      |pm| |pm|      |pm| |pm|
E|------------------------------------------------------------|
B|--2--0-4--0-5----2--0-4--0------2--0-4--0-5----2--0-4--0----|
G|--2--0-4--0-6----2--0-4--0-1----2--0-4--0-6----2--0-4--0-1--|
D|--2--0-4--0-6----2--0-4--0-2----2--0-4--0-6----2--0-4--0-2--|
A|--0--0-2--0-4----0--0-2--0-2----0--0-2--0-4----0--0-2--0-2--|
E|---------------------------0-----------------------------0--|

1:12 Lead Guitar:
E|------------------------------------------7--|
B|---------------9-----5-------5-------9-------|
G|-----------11-----8-----4\6-----6\9-----9----|
G|-----9---------------------------------------|
A|--9-----9------------------------------------|
E|---------------------------------------------|

1:17 Lead Guitar:
E|-------------------------------------7--|
B|---------------9-----5-------5-------9--|
G|-----------11-----8-----4\6-----6\9--9--|
G|-----9----------------------------------|
A|--9-----9-------------------------------|
E|----------------------------------------|

1:23 Lead Guitar:
E|--------------------------------|
B|--12--14--17----12--14--17--21--|
G|--------------------------------| x4
D|--13--14--18----13--14--18--21--|
A|--12--13--17----12--13--17--20--|
E|--------------------------------|

1:23 Rhythm Guitar:
E|-----------------------|
B|-----------------------|
G|--------------9--------|x17
D|--------------------9--|
A|--0--9h--11h-----0-----|
E|-----------------------|

1:56 Rhythm Guitar:
     |pm| |pm|      |pm| |pm|      |pm| |pm|      |pm| |pm|
E|------------------------------------------------------------|
B|--2--0-4--0-5----2--0-4--0------2--0-4--0-5----2--0-4--0----|
G|--2--0-4--0-6----2--0-4--0-1----2--0-4--0-6----2--0-4--0-1--|  x2
D|--2--0-4--0-6----2--0-4--0-2----2--0-4--0-6----2--0-4--0-2--|
A|--0--0-2--0-4----0--0-2--0-2----0--0-2--0-4----0--0-2--0-2--|
E|---------------------------0-----------------------------0--|

1:56 Lead Guitar
E|----------------------------------------------------------------------------------|
B|----------------------------------------------------------------------------------|
G|--4--6--9----4--4-6--6-9--8-8-8--13-13----444--6--9----4--4-6--6-9--13--13-13-13--|
D|----------------------------------------------------------------------------------|
A|----------------------------------------------------------------------------------|
E|--5--7--9----5--5-7--7-9--9-9-9--12-12----555--7--9----4--4-7--7-9--12--12-12-12--|

2:07 Lead Guitar
E|----------------------------------------------------------------------------------|
B|----------------------------------------------------------------------------------|
G|--4--6--9-9-9-8--6--9-9----4--6--9-9-9-7--13-x-16-16----4--4-6--6-9-9-8-8-6--9-9--|
D|----------------------------------------------------------------------------------|
B|----------------------------------------------------------------------------------|
E|--5--7--9-9-9-9--7--9-9----5--7--9-9-9-9--12-x-15-15----5--5-7--7-9-9-9-9-7--9-9--|

2:16 Lead Guitar
                      |x16||x4||x4||x4||x4||x12||x4||x4||x4||x4|
E|----------------------------------------------------------------|
B|-----------------------------------16--17---------------16--17--|
G|--4--6--9-9-9-8--13--16---13--16----------16---13--16-----------|
D|----------------------------------------------------------------|
A|-----------------------------------14--16---------------14--16--|
E|--5--7--9-9-9-9--12--15---12--15----------15---12--15-----------|

2:19 Rhythm Guitar
     |pm| |pm|          |-pm-|  |pm| |pm|          |-pm-|
E|-------------------------------------------------------|
B|--2--0-4--0-5--5-5-5-5-0-0---2--0-4--0------------0-0--|
G|--2--0-4--0-6--6-6-6-6-0-0---2--0-4--0-1--1-1-1-1-0-0--|  x2
D|--2--0-4--0-6--6-6-6-6-0-0---2--0-4--0-2--2-2-2-2-0-0--|
A|--0--0-2--0-4--4-4-4-4-0-0---0--0-2--0-2--2-2-2-2-0-0--|
E|-------------------------------------------------------|

2:30 Lead Guitar:
E|--------------------------------|
B|--12--14--17----12--13--17--21--|
G|--------------------------------|
D|--13--14--18----13--14--18--21--|
A|--12--13--17----12--13--17--20--|
E|--------------------------------|

2:30 Rhythm Guitar:
     |pm| |pm|      |pm| |pm|
E|-----------------------------------------|
B|--2--0-4--0-5----2--0-4--0------2--4--5--|
G|--2--0-4--0-6----2--0-4--0-1----2--4--6--|
D|--2--0-4--0-6----2--0-4--0-2-------------|
A|--0--0-2--0-4----0--0-2--0-2-------------|
E|---------------------------0-------------|

2:36 Lead Guitar:
   |pm|                |pm|
E|---------------------------------------------|
B|---------------------------------------------|
G|-----------------9-------------------9--11h--|  x6
D|-------9\11----------------9/11--------------|
A|-------------11------------------11----------|
E|--7\9-----------------7\9--------------------|

2:36 Rhythm Guitar:
E|-----------------------|
B|-----------------------|
G|--------------9--------|x8
D|--------------------9--|
A|--0--9h--11h-----0-----|
E|-----------------------|

If uou are playing the Audiotree/Live version, just repeat the instrunmentation from the final chorus at the
end and add


***********************************

| h   - hammer-on
| p   - pull-off
| b   - bend
| pb  - pre-bend
| r   - bend release
| /   - Slide up
| \   - Slide down
| ~   - vibrato
| PM  - palm muting
| x   - dead note
|(n)  - ghost note

***********************************

↓ Add and view comments below ↓

What do you think about this song and these tabs?

Add your comments, questions, rant or a thumbs up below.

Almost there ...

Sign in to get your own page with links to favourite songs and more. You are just one click away...

Login with Facebook Login with Google