Log in

One click and you are in

Login with Facebook Login with Google

Why sign up and log in

Guitar Tabs Explorer
Tree63 tabs for Treasure

Guitar tabs

Tree63 - Treasure
Tabbed by: Carl Hansen
Posted by: Darryl Gibbs

This is my first tab.  It sounds just like the album if you use the
mentioned effects! Email me if you comments at bibbz@webmail.co.za.
Sorry if it looks a little messy.

h - hammer


Intro x3
(Sounds great with a chorus pedal) with overdrive
e--------------------------------- ---------------------------------
B--------------------------------- ---------------------------------
G-7h9-11-11--7h9-11-11-11--12-11-x3-7h9-11-11--7h9-14-14-14--12-9---
D-0----0--0--0----0--0--0------0-- -0----0--0--0----0--0--0-----0---
A--------------------------------- ---------------------------------
E--------------------------------- ---------------------------------


Verse
Overdrive with palm mute (strum down,up,down)
e--10-10-10---8--8--8---7-7-7---3-3-3
B--10-10-10---8--8--8---7-7-7---3-3-3
G--11-11-11---9--9--9---7-7-7---4-4-4  x2
D--12-12-12--10-10-10---9-9-9---5-5-5
A--12-12-12--10-10-10---9-9-9---5-5-5
E--10-10-10---8--8--8---7-7-7---3-3-3
      \D/       \C/     \Bm/     \G/

(strum down only)
e--5-5-5---3-3-3
B--5-5-5---3-3-3
G--6-6-6---4-4-4  x2
D--7-7-7---5-5-5
A--7-7-7---5-5-5
E--5-5-5---3-3-3
    \A/     \G/


Chorus
Same as verse but no mutes (strum down only)
e--10-10-10---8--8--8---7-7-7---3-3-3
B--10-10-10---8--8--8---7-7-7---3-3-3
G--11-11-11---9--9--9---7-7-7---4-4-4  x2
D--12-12-12--10-10-10---9-9-9---5-5-5
A--12-12-12--10-10-10---9-9-9---5-5-5
E--10-10-10---8--8--8---7-7-7---3-3-3
      \D/       \C/     \Bm/     \G/

e--5-5-5---3-3-3
B--5-5-5---3-3-3
G--6-6-6---4-4-4  x2
D--7-7-7---5-5-5
A--7-7-7---5-5-5
E--5-5-5---3-3-3
    \A/     \G/


Bridge
e---------------------------------
B---------------------------------
G-7h9-11-11--7h9-11-11-11--12-11--  x2
D-0----0--0--0----0--0--0------0--
A---------------------------------
E---------------------------------

There's that funny little bit then this short solo


Solo
e------------------------------------------------
B--------------------------13-12-13-12-----------
G--11-12-14-7-5-7-11-12-14-------------12-14-12--
D------------------------------------------------
A------------------------------------------------
E------------------------------------------------


Outro x3
Same effects as intro
e--------------------------------- ---------------------------------
B--------------------------------- ---------------------------------
G-7h9-11-11--7h9-11-11-11--12-11-x3-7h9-11-11--7h9-14-14-14--12-9---
D-0----0--0--0----0--0--0------0-- -0----0--0--0----0--0--0-----0---
A--------------------------------- ---------------------------------
E--------------------------------- ---------------------------------

Song Structure:


Intro,

Verse,

Chorus,

Bridge,

Verse,

Chorus,

Solo,

Verse,

Chorus,

Outro,

Solo (played till fade)
ⓘ Guitar tab for 'Treasure' by Tree63, a gospel band formed in 1996 from Durban, South Africa. They retired in 2009

Almost there ...

Sign in to get your own page with links to favourite songs and more. You are just one click away...

Login with Facebook Login with Google