Log in

One click and you are in

Login with Facebook Login with Google

Why sign up and log in

Guitar Tabs Explorer
Tree tabs for This land

Guitar tabs

This Land
Tree
Originally by Woody Guthrie
Tabbed by James Needre (rneed@ma.ultranet.com)
http://www.geocities.com/SunsetStrip/Palladium/6662/
Tuning is a whole step down. (D,G,C,F,A,D)
p.m.=palm muting


Riff A chord diagramA augmentedA

C--5---------7-------
G--3----5----5----5--
D-------3---------3--
Let all notes ring!!


Riff A chord diagramBB

C--5-5-5-5-5-5-5-----------------7-7-7-7-7-7-7-----------------
G--3-3-3-3-3-3-3--5-5-5-5-5-5-5--5-5-5-5-5-5-5--5-5-5-5-5-5-5--
D-----------------3-3-3-3-3-3-3-----------------3-3-3-3-3-3-3--


Riff A chord diagramC majorC

C--5-5-5-5-5-5-5-5-5-5---------------------7-7-7-7-7-7-7-7-7-7-----------------------
G--3-3-3-3-3-3-3-3-3-3-5-5-5-5-5-5-5-5-5-5-5-5-5-5-5-5-5-5-5-5--5-5-5-5-5-5-5-5-5-5--
D----------------------3-3-3-3-3-3-3-3-3-3----------------------3-3-3-3-3-3-3-3-3-3--

All palm muted!!!!


Fill 1

C--5-5-5-5-5-5-5-5-5-5---------------------7-7-7-7-7-7-7-7-7-7-----------------
G--3-3-3-3-3-3-3-3-3-3-5-5-5-5-5-5-5-5-5-5-5-5-5-5-5-5-5-5-5-5--5-5-5-5-5-5-5--
D----------------------3-3-3-3-3-3-3-3-3-3----------------------3-3-3-3-3-3-3--

All p.m.!!!!!


End

C--5-5-5-5-5-5-5-5-5-5---------------------7-7-7-7-7-7-7-7-7-7-7-7-7-7-7-7-7-7-7-7-7----------------
G--3-3-3-3-3-3-3-3-3-3-5-5-5-5-5-5-5-5-5-5-5-5-5-5-5-5-5-5-5-5-5-5-5-5-5-5-5-5-5-5-5-5-5-5-5-5-5-5--
D----------------------3-3-3-3-3-3-3-3-3-3-------------------------------------------3-3-3-3-3-3-3--

Palm muted!!!!


Order

Riff A chord diagramA augmentedA    x2

Riff A chord diagramBB    x6

Riff A chord diagramC majorC    x1
Fill 1    x1

Riff A chord diagramBB    x1
End       x1

Almost there ...

Sign in to get your own page with links to favourite songs and more. You are just one click away...

Login with Facebook Login with Google