Log in

One click and you are in

Login with Facebook Login with Google

Why sign up and log in

Guitar Tabs Explorer
Tree tabs for Burnt

Guitar tabs

Burnt
Tree
Off Downsizing the American Dream
By James Needre (rneed@ma.ultranet.com)
http://www.geocities.com/SunsetStrip/Palladium/6662
Tuning is a whole step down. (D,G,C,F,A,D)


Riff A chord diagramA augmentedA

C--9--9--9--9--
G--7--7--7--7--
D--------------
Let last note ring.


Riff A chord diagramBB

C--9-----7--11-12-11--
G--7--9--5---9-10--9--
D-----7---------------


Riff A chord diagramC majorC

C--9-9-9-9-9-9-9--7-7-7-7-7-7-7--9-9-9-9-9-9-9-----7--12-11-12-11--
G--7-7-7-7-7-7-7--5-5-5-5-5-5-5--7-7-7-7-7-7-7--9--5--10--9-10--9--
D-----------------------------------------------7------------------

Riff A chord diagramD MajorD

C--9--7--
G--7--5--
D--------
Let Ring


Riff A chord diagramE MajorE

C--9-----7--
G--7--9--5--
D-----7-----
Let last note ring.


End

C--9-----7--
G--7--9--5--
D-----7-----


Order

Riff A chord diagramA augmentedA    x1

Riff A chord diagramBB    x4

Riff A chord diagramC majorC    x4

Riff A chord diagramD MajorD    x6

Riff A chord diagramBB    x4

Riff A chord diagramE MajorE    x3
End       x1

Almost there ...

Sign in to get your own page with links to favourite songs and more. You are just one click away...

Login with Facebook Login with Google