Log in

One click and you are in

Login with Facebook Login with Google

Why sign up and log in

Guitar Tabs Explorer
Treble Charger bass tabs for Red

Bass tabs with lyrics

Bass Tab: Red
  Album: Maybe Its Me
 Tabbed: Rattman


Intro:

 G  D  Am7 C
G-------------------
D------0------------
A----------0---3----
E-3-----------------

As the lead guitarist picks the chords listed above, play each note when
the
chord changes.
Chorus and Solos:
G------------------------
D-------0-0-0------------
A-------------0-0-0-3-3-3
E-3-3-3------------------

These arent the exact ammount of pickings but you get the idea. Just
follow
the chord changes.

End on an Open E.


Bass Tab: Red
  Album: Maybe Its Me
 Tabbed: Rattman


Intro:

 G  D  Am7 C
G-------------------
D------0------------
A----------0---3----
E-3-----------------

As the lead guitarist picks the chords listed above, play each note when the
chord changes.


Chorus and Solos:
G------------------------
D-------0-0-0------------
A-------------0-0-0-3-3-3
E-3-3-3------------------

These arent the exact ammount of pickings but you get the idea. Just follow
the chord changes.

End on an Open E.

Almost there ...

Sign in to get your own page with links to favourite songs and more. You are just one click away...

Login with Facebook Login with Google