Log in

One click and you are in

Login with Facebook Login with Google

Why sign up and log in

Guitar Tabs Explorer
Pat Travers bass tabs for I la la la love you

Bass tabs with lyrics

-------------------------------------------------------------------------------
			   I LA LA LA LOVE YOU - Pat Travers
-------------------------------------------------------------------------------

Tabbed By : Isaias Garcia (TexasFury)
Tuning: Standard

93 BPM

   Intro - m.4
   E E S S E E E S S E   S S E S S S S S S S S S S S S  E E S S E E E SS S S
G||----------------------------|---------------6h-7---------------|---------------------------6h-|
D||----------9------------9----|----9------9-9------5-----6---7---|----------9------------9------|
A||----------------------------|----------------------7-5---5---7-|------------------------------|
E||--7--7--7---7--7--7--7---7--|------7--7------------------------|--7--7--7---7--7--7--7---7----|


 S S S S S S S S S S S S S S S S  E E S S E E E S S E   S S E S S E E E S
E
--7-------------------------------|----------------------------|-----------------------------|
----5---7-6-----------------------|----------9------------9----|----9------9------------9----|
------------9---9---7-7-5-5---3---|----------------------------|-----------------------------|
------7-------7---9---------7---5-|--7--7--7---7--7--7--7---7--|------7--7---7--7--7--7---7--|


                                Verse 1
 E
----------------------------|--------------------------------|---------------------------|
----------9------------9----|----9------9------9-7-6-----6-7-|---------------------------|
----------------------------|------------------------7-9-----|---------------------------|
--7--7--7---7--7--7--7---7--|------7--7---7--7---------------|--7--7--5--5--5--0--5--5\--|


 E
S S E
---------------------------------|----------------------------------|----------------------------|
-------------------------11s-12s-|--13----13s-14--L-----------------|----------9------------9----|
-------------11--11--14----------|-------------------------------7--|----------------------------|
--2--2--0-----0---0--------------|-----11-------------5--5----9-----|-----7--7---7--7--7--7---7--|

 S S E  S
 S
-------------------------------|---------------------------|---------------------------------|
----9------9-------7-6-----6-7-|---------------------------|--------------------------11h-12-|
-----------------------7-9-----|---------------------------|--------------11--11--14---------|
------7--7---7--7--------------|--7--7--5--5--5--5--5--5\--|--2--2--0--0---------------------|


  S S S  S  S S E Q  E S S  S S S S E E E E E S S  E E E E E E S S S S
------------------------------------|--6---6s-7--------------------|------------------------------|
--13----13s-14\--L----------------7-|------------------------------|------------------------------|
--------------------------------7---|----4----0----------5--3--3---|-------------------------5h-6-|
-----11--------------5--5----9------|--------------3--3----------5-|--2--2--2--2--0--0--6h-7------|


 E
---------------------------|----------------------------|-----------------------------|
-----------------6---------|----------9------------9----|----9------9------------9----|
-----------------------4-4-|----------------------------|-----------------------------|
--2--2--2--2--4--0--0------|--7--7--7---7--7--7--7---7--|------7--7---7--7--7--7---7--|


                                Verse 2
 E
----------------------------|--------------------------------|---------------------------|
----------9------------9----|----9------9------9-7-6-----6-7-|---------------------------|
----------------------------|------------------------7-9-----|---------------------------|
--7--7--7---7--7--7--7---7--|------7--7---7--7---------------|--7--7--5--5--5--5--5--5\--|


 E
----------------------------------|-----------------------------------|----------------------------|
--------------------------11s-12s-|--13----13s-14\--L-----------------|----------9------------9----|
--------------11--11--14----------|--------------------------------7--|----------------------------|
--2--2--0--0---0---0--------------|-----11--------------5--5----9-----|-----7--7---7--7--7--7---7--|


 S S E  S
 S
-------------------------------|---------------------------|---------------------------------|
----9------9-------7-6-----6-7-|---------------------------|--------------------------11h-12-|
-----------------------7-9-----|---------------------------|--------------11--11--14---------|
------7--7---7--7--------------|--7--7--5--5--5--0--5--5\--|--2--2--0--0---------------------|


                                   Bridge
  S S S  S  S S E Q  E S S  S S S S E E E E E S S  Q  E S S Q  E
S S
------------------------------------|--6---6s-7--------------------|--------------------------|
--13----13s-14\--L----------------7-|------------------------------|--------------------------|
--------------------------------7---|----4----0----------5--3--3---|--------------------------|
-----11--------------5--5----9------|--------------3--3----------5-|--2-------2-0-0-------0-2-|


 Q  E S S Q  E S S  Q  E S S Q  E S S  Q  E S S Q  E S S
--------------------------|--------------------------|--------------------------|
--------------------------|--------------------------|--------------------------|
--------------------------|--------------------------|--------------------------|
--2-------2-2-0-------0-0-|--2-------2-2-0-------0-0-|--2-------2-2-0-------0-0-|


 Q  E S S Q  E S S  Q  E S S Q  E S S  Q  E S S Q  E S S
--------------------------|--------------------------|--------------------------|
--------------------------|--------------------------|--------------------------|
--------------------------|--------------------------|--------------------------|
--2-------2-2-0-------0-0-|--2-------2-2-0-------0-0-|--2-------2-2-0-------0-0-|


 Q  E
--------------------------|--------------------------|---------------------------|
--------------------------|--------------------------|---------------------------|
--------------------------|--------------------2--4--|----------------------2-4--|
--2-------2-2-0-------0-0-|--2--2--2--2--0--4--------|--2--2--2--2--0--4--2------|


 E Q  Q
---------------------------|---------------------------|------------------------|
---------------------------|---------------------------|------------------------|
--------------------2-2-4--|--------------------2-2-4--|--2--2--2--2--0---------|
--2--2--2--2--0--4---------|--2--2--2--2--0--4---------|-------------------0----|


 E E E E Q  Q    E E E E Q  Q    S S S S S S   S S S  S S S
 S E
------------------------|------------------------|-----------------------------------------------|
------------------------|------------------------|-----------------------------------------------|
--2--2--2--2--0---------|--2--2--2--2--0---------|----9---------------9-------10----10g11-12-----|
-------------------0----|-------------------0----|--7---7-9-7-9-10g11---9s-12----12----------12--|


 Interlude
                              NH P  P  P
 W          E  S  S S S S  S H       E E S S E E E  Q
-------------------|---------------------------------|------------------------14----|
-------------------|------------9--------------------|------------------------------|
--0----------------|-----10h-12---12-10h-12-L--------|--------7----7----5-----------|
-------------------|---------------------------------|--<>12------------------------|


       <
  H     Q   Q    Q   S  S S S E.  S  S S  S  S
---L--------------------|---------------------------------------------|
------------14-----L----|--14----17s-16----17--Ls---14s-17-14s-17s-14-|
------------------------|---------------15----------------------------|
------------------------|---------------------------------------------|


 E  S S  H     E E   E S S S S S S E E Q    E.  S E  E S  S S S
Q
-----------------------------|-----------------------------|-----------------------------14\----|
-----14----------------------|----------5---5-7-L----------|------------------9h-11---14--------|
--------12\--L---------L-----|-----5h-7---7----------------|-------10--L--12--------------------|
-----------------------------|---------------------5--L----|--12--------------------------------|


 S S S S S S S S S S S S S S S S  S S S S S S S S S S S S S S S S
----------------------------------|----------------------------------|
----------------------------------|----------------------------------|
--------------7-7-----------4-----|--------------7-7-----------4-----|
--0-0-0-0-0-7-----2-2-2-2-2---0-2-|--0-0-0-0-0-7-----2-2-2-2-2---0-2-|


 S S S S S S S S S S S S S S S S  S S S S S S S S  S S S S S S S S S S S S S S S S
----------------------------------|------------------|----------------------------------|
----------------------------------|------------------|----------------------------------|
----------------------------4-----|------------------|----------------------------------|
--0-0-0-0-0-7-0-0-2-2-2-2-2---2-2-|--0-0-0-0-0-7-0-0-|--2-2-2-2-2-2-2-2-2-2-2-2-2-2-2-2-|


                                Verse 3
 E
----------------------------|---------------------------1-2-|--------------------------|
------------5---------------|-----------------------2-4-----|--------------------------|
----------5---5-------------|----------7------2-4-5---------|--2-----------------------|
--3--3--3-------3--3--3--3--|--5--5------5--5---------------|----------5--L--0--2--4\--|


 E
----------------------------------|-----------------------------------|
---------------------------11s-12-|--13----13s-14--L\--------7--------|
---------------11--11--14---------|--------------------------------7--|
--2--2--0--12---------------------|-----11-------------5--5-----9-----|


 S S S S E
--6---6s-7--------------------|----------------------------|--------------------------|
------------------------------|--------------------------2-|--------------------------|
----4----0----------5--3--3---|----------------------2-4---|--------------------2--4--|
--------------3--3----------5-|--2--2--2--2--0--0--2-------|--2--2--2--2--0--4--------|


 E
----------------------------|-----------------------------|----------------------------|
----------9------------9----|----9------9------------9----|----------9------------9----|
----------------------------|-----------------------------|----------------------------|
--7--7--7---7--7--7--7---7--|------7--7---7--7--7--7---7--|--7--7--7---7--7--7--7---7--|


                                         |-3| |--3--|
 S S E S S E E E S S E   E E S S E E E S S E   S S E S S E E S S E S S
S S
-----------------------------|----------------------------|------------------------------------|
----9------9------------9----|----------9------------9----|----9------9-------7-6------6h-7h-9-|
-----------------------------|----------------------------|-----------------------7--9---------|
--7---7--7---7--7--7--7---7--|--7--7--7---7--7--7--7---7--|--7---7--7---7--7-------------------|


 Outro - 184 BPM
 E
--------------------------|--------------------------|--------------------------|
--------------------------|--------------------------|--------------------------|
--------------------------|--------------------------|--------------------------|
--7--7--7--7--7--7--7--7--|--7--7--7--7--7--7--7--7--|--7--7--7--7--7--7--7--7--|


 E
--------------------------|--------------------------|--------------------------|
-----------------9--------|--------------------------|--------------------------|
--------------------------|--------------------------|--------------------------|
--7--7--7--7--7-----7--7--|--7--7--7--7--7--7--7--7--|--7--7--7--7--7--7--7--7--|


 E Q
--------------------------|-----------------------||
--------------------------|-----------------------||
--------------------------|-----------------------||
--7--7--7--7--7--7--7--7--|--7----7----7--7--7----||


Duration 🏷Legend
---------------
W - whole
H - half
Q - quarter
E - 8th
S - 16th
T - 32nd
X - 64th
. - note dotted
|-n-| - n-tuplets


Tablature 🏷Legend
----------------
L - tied note
x - dead note
g - grace note
(n) - ghost note
> - accentuded note
NH - natural harmonic
AH - artificial harmonic
TH - tapped harmonic
SH - semi harmonic
PH - pitch harmonic
h - hammer on
p - pull off
b - bend
br - bendRelease
pb - preBend
pbr - preBendRelease
brb - bendReleaseBend
\n/ - tremolo bar dip
\n - tremolo bar dive
-/n - tremolo bar Release up
/n\ - tremolo bar inverted dip
/n - tremolo bar return
-\n - tremolo bar Release down
S - shift slide
s - legato slide
/ - slide into from below or out of upwards
\ - slide into from above or out of downwards
~ - vibrato
W - wide vibrato
tr - trill
TP - tremolo picking
T - tapping
S - slap
P - pop
< - fade in
^ - brush up

Almost there ...

Sign in to get your own page with links to favourite songs and more. You are just one click away...

Login with Facebook Login with Google