Log in

One click and you are in

Login with Facebook Login with Google

Why sign up and log in

Guitar Tabs Explorer
The Traveling Wilburys bass tabs for You took my breath away

You Took My Breath Away bass tab by The Traveling Wilburys

The Traveling Wilburys bass tabs for You took my breath away

Bass tabs with lyrics

Tuning: Standard (E A D G)


Gtr I (E A D G) - 'Jeff "Clayton Wilbury" Lynne - Bass'

 Intro:
 Q=93
 4/4
 Gtr I
  Q.  E E E Q  Q.  E E E Q  Q.  E E E Q  H  E E E E
G|---------------|---------------|---------------|---------------||
D|--------5-5-5--|--------5-5-5--|--------5-5-5--|--------0-2-3--||
A|-3----3--------|-3----3--------|-3----3--------|-3----3--------||
E|---------------|---------------|---------------|---------------||
 Verses 1 - 3:
 Segno $
   Q.  E Q Q  E Q E E E E E  Q.  E Q Q  E Q E E E E E
G||---------------|----------------|--------------|-----------------|
D||o-5----5-5--5--|-5--------0-2-3-|-5----5-5--5--|-5--------0-2-3--|
A||o--------------|---3--3-3-------|--------------|---3--3-3--------|
E||---------------|----------------|--------------|-----------------|


  Q.  E Q Q  E Q E E E E E  Q.  E Q Q  E Q Q E E E
G|--------------|----------------|--------------|---------------|
D|-5----5-5--5--|-5--------0-2-3-|-5----5-5--5--|-5-------------|
A|--------------|---3--3-3-------|--------------|---3--3--3-3-3-|
E|--------------|----------------|--------------|---------------|


  Q.  E E Q E  Q.  E Q.  E  Q.  E Q Q  Q.  E E E E E
G|---------------|---------------|--------------|----------5-4-3-|
D|-7----7-7-7--7-|---------------|-5----5-5--5--|----------------|
A|---------------|-5----5-5----5-|--------------|-3----3-3-------|
E|---------------|---------------|--------------|----------------|

                  To Coda
  Q.  E E Q E  Q.  E Q.  E  W     E Q E H
G|---------------|---------------|----------|-------------|
D|-7----7-7-7--7-|---------------|-5--------|-5-----------|
A|---------------|-5----5-5----5-|----------|---3--3-3----|
E|---------------|---------------|----------|-------------|


                 Bridge:
  1.       2.
  H  E E E E   H  E E E E  E Q E Q.  E  Q.  E Q E E
G|---------------||--------------||--------4----4-|---------------|
D|--------0-2-3-o||----------0-1-||-2-2--2--------|-2----2----2-2-|
A|------3-------o||-3------3-----||---------------|--------2------|
E|---------------||--------------||---------------|---------------|


  E Q.  E Q E  E Q E E E E E  E Q E E Q E  E Q E Q.  E
G|-2-2-----------|-2-2--2-----2-2-|---------------|---------------|
D|--------2-2--2-|--------2-2-----|--------7-7--7-|--------7----7-|
A|---------------|----------------|-5-5--5--------|-5-5--5--------|
E|---------------|----------------|---------------|---------------|


                 Dal Segno al Coda
  Q.  E Q.  E  Q E E E E E E  H  E E E E
G|---------------|----------------|----------------||
D|-3----3-3----3-|-5--5-5-5-5-5-5-|--------0-2-3---||
A|---------------|----------------|-3----3---------||
E|---------------|----------------|----------------||


 Outro:
 Coda &
   E Q Q E E E  Q.  E E Q E  Q.  E Q.  E
G||----5--5--5-4-3-|-2----2-2-2--2-|---------------|
D||o-5-------------|---------------|---------------|
A||o---------------|---------------|-5----5-5----5-|
E||----------------|---------------|---------------|


  Q.  E Q Q   E Q.  E E Q   Q.  E Q.  E  E Q.  E E Q
G|---------------||---5----5-7-9\--|---------------|---5----5-7-9\--|
D|-5----5-5--5--o||-5--------------|-5----5-5----5-|-5--------------|
A|--------------o||----------------|---------------|----------------|
E|---------------||----------------|---------------|----------------|


  Q.  E Q.  E  E Q E +H    +W
G|---------------|---5--5-(5)----|-(5)----*|
D|-5----5-5----5-|-5-------------|--------*|
A|---------------|---------------|--------*|
E|---------------|---------------|--------*|

************************************
Duration Legend

W - whole; H - half; Q - quarter; E - 8th; S - 16th; a - acciaccatura;
+ - note tied to previous; . - note dotted;
Duration letters will always appear directly above the note/fret number it represents
the duration for. Duration letters with no fret number below them represent rests.
Uncapitalized letters represent notes that are staccato (1/2 duration).

| +()  - note tied to previous
|  \  - slide out of (to "nowhere")
|  |  - bar
|  ||  - double bar
| ||o  - repeat start
| o||  - repeat end
**************************************

Almost there ...

Sign in to get your own page with links to favourite songs and more. You are just one click away...

Login with Facebook Login with Google