Log in

One click and you are in

Login with Facebook Login with Google

Why sign up and log in

Guitar Tabs Explorer
Trapt tabs for When all is said and done

Guitar tabs

Artist : Trapt
Song : When All is Said and Done


|Tuning: Drop B---------|
|(A chord diagramBB)(A chord diagramF#F#)(A chord diagramBB)(A chord diagramE MajorE)(A chord diagramG#G#)(A chord diagramC#C#)--| <-KEY
|~ = vibrate note-------|
|> = slide--------------|
|h = hammer one note----|
|x = fret harmonic noise|
|_______________________|
((( First One To Post A chord diagramA augmentedA TRAPT tab on MXtabs.net,  wooo hooo! ))))


Riff 1:
part one
|-------------|-----------------------|
|-------------|-----------------------|
|-------------|---------------------9-|
|-77-77-77-77-|-8-8-88-8>10-5-5-55----|
|-77-77-77-77-|-8-8-88-8>10-5-5-55----|
|-77-77-77-77-|-8-8-88-8>10-5-5-55>7--|
part two:
|----------------------------------------|
|----------------------------------------|
|----------------------------------------|
|-7-7-7-7-7-7-7-7----------------------9-|
|-7-7-7-7-7-7-7-7-8-8-88-8>10-5-5-55>----|
|-7-7-7-7-7-7-7-7-8-8-88-8>10-5-5-55>----|
|-7-7-7-7-7-7-7-7-8-8-88-8>10-5-5-55>7---|


Riff 2:
|---------------------------|
|-----8-7-------------------|
|-7-------7-----------------|
|-7-7-------7-xx-5-5-xx-3-3-|
|-5-----------xx-3-3-xx-1-1-|
|---------------------------|

Riff 3:
|-----------------------------------------------------------------|
|-----------------------------------------------------------------|
|-----------------------------10-10-1010-10-10-1010-7-7-77-7-7-77-|
|-7-7-77-7-7-10-10-1010-10-10-8--8--8-8--8--8--8-8--5-5-55-5-5-55-|
|-5-5-55-5-5-8--8--8-8--8--8--8--8--8-8--8--8--8-8--5-5-55-5-5-55-|
|-----------------------------8--8--8-8--8--8--8-8--5-5-55-5-5-55-|

fill 1:
|------------------------------------|
|-----8--------8--------7--------7---|
|-7-7---7--7-7---7--5-5---5--5-5---5-|
|------------------------------------|
|------------------------------------|
|------------------------------------|


Riff 4:
|----------------|
|----------------|
|-------9--------|
|-------------10-|
|----7------8----|
|-7-------8------|


NOTE: the last bit of the song after the chorus is the 7th fret!
I couldnt be bothered tabbing it

ORDER:

Intro/verse one:

Riff 1 part one (x2)

Riff 1 part two (x1)

Pre Chorus:

Riff 2 (x4)

Chorus one:

Riff 3 (x2)
Fill 1 (x1)

Verse two:

Riff 1 part one (x2)

Riff 1 part two (x2)

Pre Chorus:

Riff 2 (x4)

Chorus two:

Riff 3 (x2)

Bridge:

Riff 4 (x6)

Pre Chorus:

Riff 2 (x4)

Chorus one:

Riff 3 (x4)

Almost there ...

Sign in to get your own page with links to favourite songs and more. You are just one click away...

Login with Facebook Login with Google