Log in

One click and you are in

Login with Facebook Login with Google

Why sign up and log in

Guitar Tabs Explorer
Trapt bass tabs for The game

Bass tabs

TRAPT - THE GAME
Standard tuning
Tabbed by Shamu

On the Intro/Verse part, you can hear him hammering on/off some of the notes.
Mess around with it a little bit.
Intro/Verse (0:00)
G|------------------------------------|----|----------------
D|------4-----5-4-2------4-----4-7-0--|----|------5------9--
A|--222---222--------000---000--------|-x2-|---------000----
E|------------------------------------|----|--333-----------


Pre-Chorus (0:43)
G|----------------------------------------------------------------------
D|----------------------------------------------------------------------
A|----------------------------------------------//12--------------//12--
E|--00--00--33--33--00--00--33--33--00xx00xx3333------00xx00xx3333------


Chorus (1:06)
G|----------------------
D|---------------------- He does a little hammer-on thingy here...
A|--22222222------------   Listen close, you'll get it. Simple enough.
E|-----------0000-3333--

2nd Verse (1:29)

2nd Pre-Chorus (2:12)

2nd Chorus (2:34)


Bridge (2:57)
G|----------4-22222-------------------
D|------4-----------55555-4444h5p4-2--
A|--222---2---------------------------
E|------------------------------------

3rd Pre-Chorus (3:43)
G|--------------------------------------
D|--------------------------------------
A|--------------//12--------------//12--
E|--00--00--33--------00--00--33--------

3rd Chorus (3:54)


Outro (4:17)
G|--------------------------{--------------}----------------------------
D|--------------------------{--------------}----------------------------
A|--2222--2222--2222--2222--{--2~~2~~------}--2222--2222--2222--2222x2~~
E|--------------------------{--------0~~3~~}----------------------------
               {play 4 times}

Fin.

Almost there ...

Sign in to get your own page with links to favourite songs and more. You are just one click away...

Login with Facebook Login with Google