Guitar Tabs Explorer
Meghan Trainor guitar tabs for Like im gonna lose you (Ver. 2)

Like I'm Gonna Lose You tab


5 / 5 [1 vote]

Like I'm Gonna Lose You tab by Meghan Trainor (Ver. 2)

Guitar tabs with lyrics

Print

-------------------------------------------------------------------------------
 Meghan Trainor ft John Legend -like Im gonna Lose You
-------------------------------------------------------------------------------
Tabbed by: Lyvia Darshini
E chord diagramEE-mail: lyvia8810@gmail.com
Submitted to GTE by: Leyland Palmer

Tuning:Standard
INTRO

e|-------------0--0----------------------------5--5-------5--5---------------|
B|-------------1--1-------------8--------------5--5-------5--5---------------|
G|-----0-------0--0-------------9--------------5--5-------5--5---------------|
D|-0h2--------------------------9--------------------------------------------|
A|--------3---------3--5--6--7-----7-7---------------------------------------|
E|------------------------------------8-7--5-------5--5---------------------|

e|---------------------------------------------------------------------------|
B|------1------------1-----------1-------------------------------------------|
G|---0----------0----------0-------------------------------------------------|
D|-3--------2----------------------------------------------------------------|
A|---------------------------------------------------------------------------|
E|----------------------3----------------------------------------------------|
PLAY THIS 3 TIMES
I found myself dreaming
In silver and gold
Like a scene from a movie
That every broken heart knows we were walking on moonlight
And you pulled me close
Split second and you disappeared and then I was all alone

I woke up in tears
With you by my side
A chord diagramAA breath of relief
And I realized
No, we're not promised tomorrow

CHORUS
C chord diagramCC
So I'm gonna love you
Em chord diagramEmEm
Like I'm gonna lose you
Am chord diagramAmAm
I'm gonna hold you
F chord diagramFF (Em chord diagramEmEm)           Dm chord diagramDmDm (G chord diagramGG)
Like I'm saying goodbye

repeat the chords******
wherever we're standing
I won't take you for granted
'cause we'll never know when
When we'll run out of time

so I'm gonna love you
Like I'm gonna lose you
I'm gonna love you like I'm gonna lose you

[John Legend:]
In the blink of an eye
Just a whisper of smoke
You could lose everything
The truth is you never know

So I'll kiss you longer baby
Any chance that I get
I'll make the most of the minutes
and love with no regrets

Let's take our time
To say what we want
Use what we got
Before it's all gone
'Cause no, we're not promised tomorrow

[Both:]
So I'm gonna love you
Like I'm gonna lose you
I'm gonna hold you
Like I'm saying goodbye wherever we're standing
I won't take you for granted 'cause we'll never know when
When we'll run out of time so I'm gonna love you
Like I'm gonna lose you
I'm gonna love you like I'm gonna lose you

Hey
Whoa

I'm gonna love you
Like I'm gonna lose you
I'm gonna hold you
Like I'm saying goodbye wherever we're standing
I won't take you for granted 'cause we'll never know when
When we'll run out of time so I'm gonna love you
Like I'm gonna lose you
I'm gonna love you like I'm gonna lose you

Other versions of Like I'm Gonna Lose You

- Like i'm gonna lose youChords
- Like i'm gonna lose you (Ver. 2)Chords
- Like i'm gonna lose you ukuleleChords
- Like i'm gonna lose youTabs
- Like i'm gonna lose you - introTabs
- Like i'm gonna lose you - soloTabs

Comment this song and these guitar tabs

Do you have corrections, comments on the guitar tabs, thoughts about the song or a message to the author? Write them below.