Log in

One click and you are in

Login with Facebook Login with Google

Why sign up and log in

Guitar Tabs Explorer
The Tragically Hip bass tabs for Save the planet

Save The Planet bass tab - The Tragically Hip

The Tragically Hip bass tabs for Save the planet

Bass tabs

  • Difficulty: Intermediate
Tuning: Standard (E A D G)

G|-----------------|-------12--12----|---------12------|-------12--12----|
D|-----------------|-----------------|-----------------|-----------------|
A|-----------------|-----------------|-----------------|-----------------|
E|-----------------|-----------------|-----------------|-----------------|
  1 & 2 & 3 & 4 &  1 & 2 & 3 & 4 &  1 & 2 & 3 & 4 &  1 & 2 & 3 & 4 &
G|-----------------|-----------------|-----------------|-----------------|
D|-----------------|-----------------|-----------------|-----------------|
A|-----------------|-----------------|-----------------|-----------------|
E|-3-3-3---3-3-5-1-|---1-1-----1-1-0-|-3-3-3---3-3-0-1-|---1-1-----1-1-0-|
  1 & 2 & 3 & 4 &  1 & 2 & 3 & 4 &  1 & 2 & 3 & 4 &  1 & 2 & 3 & 4 &

G|-----------------|-----------------|-----------------|-----------------|
D|-----------------|-----------------|-----------------|-----------------|
A|-----------------|-----------------|-----------------|-----------------|
E|-3-3-3---3-3-5-1-|---1-1-----1-1-0-|-3-3-3-3-3-3-0-1-|---1-1-----1-1-0-|
  1 & 2 & 3 & 4 &  1 & 2 & 3 & 4 &  1 & 2 & 3 & 4 &  1 & 2 & 3 & 4 &


Verse 1:

    "The man..."
G|-----------------|-----------------|-----------------|-----------------|
D|-----------------|-----------------|-----------------|-----------------|
A|-----------------|-----------------|-----------------|-----------------|
E|-3-3-3-3-3-3-0-1-|---1-1-----1-1-0-|-3-3-3-3-3-3-5-1-|---1-1-----1-1-0-|
  1 & 2 & 3 & 4 &  1 & 2 & 3 & 4 &  1 & 2 & 3 & 4 &  1 & 2 & 3 & 4 &

G|-----------------|-----------------|-----------------|-----------------|
D|-----------------|-----------------|-----------------|-----------------|
A|-----------------|-----------------|-----------------|-----------------|
E|-3-3-3-3-3-3-0-1-|---1-1-----1-1-0-|-3-3-3-3-3-3-5-1-|---1-1-----1-1-0-|
  1 & 2 & 3 & 4 &  1 & 2 & 3 & 4 &  1 & 2 & 3 & 4 &  1 & 2 & 3 & 4 &

G|-----------------|-----------------|-----------------|-----------------|
D|-----------------|-----------------|-----------------|-----------------|
A|-----------------|-----------------|-----------------|-----------------|
E|-3-3-3-3-3-3-0-1-|---1-1-----1-1-0-|-3-3-3-3-3-3-5-1-|---1-1-----1-1-0-|
  1 & 2 & 3 & 4 &  1 & 2 & 3 & 4 &  1 & 2 & 3 & 4 &  1 & 2 & 3 & 4 &

       "If the bath..."
G|-----------------|-----------------|-----------------|-----------------|
D|-----------------|-----------------|-----------------|-----------------|
A|-3-3-3---3-3-3-5-|---5-5---5-5-5---|-----------------|-----------------|
E|-----------------|---------------5-|-3-3-3-3-3-3-5-1-|---1-1-----1-1-0-|
  1 & 2 & 3 & 4 &  1 & 2 & 3 & 4 &  1 & 2 & 3 & 4 &  1 & 2 & 3 & 4 &

Chorus:

  "core..."
G|-----------------|-----------------|-----------------|-----------------|
D|-0-0-0---0-0-0-3-|---3-3-----------|-0-0-0---0-0-0-3-|---3-3-----------|
A|-----------------|-----------------|-----------------|-----------------|
E|-----------------|-------1---1---0-|-----------------|-------1---1---0-|
  1 & 2 & 3 & 4 &  1 & 2 & 3 & 4 &  1 & 2 & 3 & 4 &  1 & 2 & 3 & 4 &

G|-----------------|-----------------|-----------------|-----------------|
D|-0-0-0---0-0-0-3-|---3-3-----------|-0-0-0---0-0-0-3-|---3-3-----------|
A|-----------------|-----------------|-----------------|-----------------|
E|-----------------|-------1---1---0-|-----------------|-------1---1---0-|
  1 & 2 & 3 & 4 &  1 & 2 & 3 & 4 &  1 & 2 & 3 & 4 &  1 & 2 & 3 & 4 &

G|-----------------|-----------------|-----------------|-----------------|
D|-0-0-0---0-0-0-3-|---3-3-----------|-0-0-0---0-0-0-3-|---3-3-----------|
A|-----------------|-----------------|-----------------|-----------------|
E|-----------------|-------1---1---0-|-----------------|-------1---1---0-|
  1 & 2 & 3 & 4 &  1 & 2 & 3 & 4 &  1 & 2 & 3 & 4 &  1 & 2 & 3 & 4 &

G|-----------------|-----------------|-----------------|-----------------|
D|-0-0-0---0-0-0-3-|---3-3-----------|-0-0-0---0-0-0-3-|---3-3-----------|
A|-----------------|-----------------|-----------------|-----------------|
E|-----------------|-------1---1---0-|-----------------|-------1---1---0-|
  1 & 2 & 3 & 4 &  1 & 2 & 3 & 4 &  1 & 2 & 3 & 4 &  1 & 2 & 3 & 4 &


Instrumental:

G|-----------------|-----------------|-----------------|-----------------|
D|-----------------|-----------------|-----------------|-----------------|
A|-----------------|-----------------|-----------------|-----------------|
E|-3-3-3-3-3-3-5-1-|---1-1-----1-1-0-|-3-3-3-3-3-3-0-1-|---1-1-----1-1-0-|
  1 & 2 & 3 & 4 &  1 & 2 & 3 & 4 &  1 & 2 & 3 & 4 &  1 & 2 & 3 & 4 &


Verse 1:

   "It's when the powers..."
G|-----------------|-----------------|-----------------|-----------------|
D|-----------------|-----------------|-----------------|-----------------|
A|-----------------|-----------------|-----------------|-----------------|
E|-3-3-3-3-3-3-0-1-|---1-1-----1-1-0-|-3-3-3-3-3-3-5-1-|---1-1-----1-1-0-|
  1 & 2 & 3 & 4 &  1 & 2 & 3 & 4 &  1 & 2 & 3 & 4 &  1 & 2 & 3 & 4 &

G|-----------------|-----------------|-----------------|-----------------|
D|-----------------|-----------------|-----------------|-----------------|
A|-----------------|-----------------|-----------------|-----------------|
E|-3-3-3-3-3-3-0-1-|---1-1-----1-1-0-|-3-3-3-3-3-3-5-1-|---1-1-----1-1-0-|
  1 & 2 & 3 & 4 &  1 & 2 & 3 & 4 &  1 & 2 & 3 & 4 &  1 & 2 & 3 & 4 &

G|-----------------|-----------------|-----------------|-----------------|
D|-----------------|-----------------|-----------------|-----------------|
A|-----------------|-----------------|-----------------|-----------------|
E|-3-3-3-3-3-3-0-1-|---1-1-----1-1-0-|-3-3-3-3-3-3-5-1-|---1-1-----1-1-0-|
  1 & 2 & 3 & 4 &  1 & 2 & 3 & 4 &  1 & 2 & 3 & 4 &  1 & 2 & 3 & 4 &

       "Your only enemy..."
G|-----------------|-----------------|-----------------|-----------------|
D|-----------------|-----------------|-----------------|-----------------|
A|-3-3-3---3-3-3-5-|---5-5---5-5-5---|-----------------|-----------------|
E|-----------------|---------------5-|-3-3-3-3-3-3-5-1-|---1-1-----1-1-0-|
  1 & 2 & 3 & 4 &  1 & 2 & 3 & 4 &  1 & 2 & 3 & 4 &  1 & 2 & 3 & 4 &


Chorus:

  "sense..."
G|-----------------|-----------------|-----------------|-----------------|
D|-0-0-0---0-0-0-3-|---3-3---3-3-3-0-|-0-0-0---0-0-0-3-|---3-3-----------|
A|-----------------|-----------------|-----------------|-----------------|
E|-----------------|-----------------|-----------------|-------1---1---0-|
  1 & 2 & 3 & 4 &  1 & 2 & 3 & 4 &  1 & 2 & 3 & 4 &  1 & 2 & 3 & 4 &

G|-----------------|-----------------|-----------------|-----------------|
D|-0-0-0---0-0-0-3-|---3-3-----------|-0-0-0---0-0-0-3-|---3-3-------3---|
A|-----------------|-----------------|-----------------|-----------------|
E|-----------------|-------1---1---0-|-----------------|-----------1---1-|
  1 & 2 & 3 & 4 &  1 & 2 & 3 & 4 &  1 & 2 & 3 & 4 &  1 & 2 & 3 & 4 &


Bridge:

                       "And it sounds..."
G|-----------------|-----------------|-----------------|-----------------|
D|-----------------|-----------------|-----------------|-----------------|
A|---------------2-|---0-------------|---------------2-|---0-------------|
E|-3---3-----------|-----------------|-3---3-----------|---------------0-|
  1 & 2 & 3 & 4 &  1 & 2 & 3 & 4 &  1 & 2 & 3 & 4 &  1 & 2 & 3 & 4 &

G|-----------------|-----------------|-----------------|-----------------|
D|-----------------|-----------------|-----------------|-----------------|
A|---------------2-|---0-------------|---------------2-|---0-------------|
E|-3---3-----------|-----------------|-3---3-----------|---------------0-|
  1 & 2 & 3 & 4 &  1 & 2 & 3 & 4 &  1 & 2 & 3 & 4 &  1 & 2 & 3 & 4 &


Solo:

G|-----------------|-----------------|-----------------|-----------------|
D|-----------------|-----------------|-----------------|-----------------|
A|-----------------|-----------------|-----------------|-----------------|
E|-3-3-3-3-3-3-5-1-|---1-1-----1-1-0-|-3-3-3-3-3-3-0-1-|---1-1-----1-1-0-|
  1 & 2 & 3 & 4 &  1 & 2 & 3 & 4 &  1 & 2 & 3 & 4 &  1 & 2 & 3 & 4 &

G|-----------------|-----------------|-----------------|-----------------|
D|-----------------|-----------------|-----------------|-----------------|
A|-----------------|-----------------|-----------------|-----------------|
E|-3-3-3-3-3-3-5-1-|---1-1-----1-1-0-|-3-3-3-3-3-3-0-1-|---1-1-----1-1-0-|
  1 & 2 & 3 & 4 &  1 & 2 & 3 & 4 &  1 & 2 & 3 & 4 &  1 & 2 & 3 & 4 &


Verse 3:

    "The man..."
G|-----------------|-----------------|-----------------|-----------------|
D|-----------------|-----------------|-----------------|-----------------|
A|-----------------|-----------------|-----------------|-----------------|
E|-3-3-3-3-3-3-0-1-|---1-1-----1-1-0-|-3-3-3-3-3-3-5-1-|---1-1-----1-1-0-|
  1 & 2 & 3 & 4 &  1 & 2 & 3 & 4 &  1 & 2 & 3 & 4 &  1 & 2 & 3 & 4 &

G|-----------------|-----------------|-----------------|-----------------|
D|-----------------|-----------------|-----------------|-----------------|
A|-3-3-3---3-3-3-5-|---5-5---5-5-5---|-----------------|-----------------|
E|-----------------|---------------0-|-3-3-3-3-3-3-5-1-|---1-1-----1-1-0-|
  1 & 2 & 3 & 4 &  1 & 2 & 3 & 4 &  1 & 2 & 3 & 4 &  1 & 2 & 3 & 4 &

  "us...what's to..."
G|-----------------|-----------------|-----------------|-----------------|
D|-----------------|-----------------|-----------------|-----------------|
A|-----------------|-----------------|-----------------|-----------------|
E|-3-3-3-3-3-3-0-1-|---1-1-----1-1-0-|-3-3-3-3-3-3-5-1-|---1-1-----1-1-0-|
  1 & 2 & 3 & 4 &  1 & 2 & 3 & 4 &  1 & 2 & 3 & 4 &  1 & 2 & 3 & 4 &

G|-----------------|-----------------|-----------------|-----------------|
D|-----------------|-----------------|-----------------|-----------------|
A|-----------------|-----------------|-----------------|-----------------|
E|-3-3-3-3-3-3-0-1-|---1-1-----1-1-0-|-3-3-3-3-3-3-5-1-|---1-1-----1-1-0-|
  1 & 2 & 3 & 4 &  1 & 2 & 3 & 4 &  1 & 2 & 3 & 4 &  1 & 2 & 3 & 4 &


Solo:

G|-----------------|-----------------|-------------2---|-----------------|
D|-5-5-5---5-5-0-3-|---3-3-3---3-3-0-|-5-5-5---5-5---3-|---3-3-3---3-3-0-|
A|-----------------|-----------------|-----------------|-----------------|
E|-----------------|-----------------|-----------------|-----------------|
  1 & 2 & 3 & 4 &  1 & 2 & 3 & 4 &  1 & 2 & 3 & 4 &  1 & 2 & 3 & 4 &

G|-----------------|-----------------|-----------------|-------5---------|
D|-5-5-5---5-5-0-3-|---3-3-3---3-3-0-|-5-5-5---5-5-0-3-|---3-3-----3-3-3-|
A|-----------------|-----------------|-----------------|-----------------|
E|-----------------|-----------------|-----------------|-----------------|
  1 & 2 & 3 & 4 &  1 & 2 & 3 & 4 &  1 & 2 & 3 & 4 &  1 & 2 & 3 & 4 &

        "What's to become..."

G|-----------------|-----------------|-----------------|-----------------|
D|-----------------|-----------------|-----------------|-----------------|
A|-----------------|-----------------|-----------------|-----------------|
E|-3-3-3-3-3-3-0-1-|---1-1-----1-1-0-|-3-3-3-3-3-3-5-1-|---1-1-----1-1-0-|
  1 & 2 & 3 & 4 &  1 & 2 & 3 & 4 &  1 & 2 & 3 & 4 &  1 & 2 & 3 & 4 &

G|-----------------|-----------------|-----------------|-----------------|
D|-----------------|-----------------|-----------------|-----------------|
A|-----------------|-----------------|-----------------|-----------------|
E|-3-3-3-3-3-3-0-1-|---1-1-----1-1-0-|-3-3-3-3-3-3-5-1-|---1-1-----1-1-0-|
  1 & 2 & 3 & 4 &  1 & 2 & 3 & 4 &  1 & 2 & 3 & 4 &  1 & 2 & 3 & 4 &

G|-------------------------|-------------------------|
D|-------9------10-9-------|----------------------0--|
A|-10-10----10-------10-8--|----8--8--8--8--8--8-----|
E|-------------------------|-------------------------|
  1 & 2 & 3 & 4 &  1 & 2 & 3 & 4 &

G|-------------------------|-------------------------|
D|-------9------10-9-------|----------------------0--|
A|-10-10----10-------10-8--|----8--8--8--8--8--8-----|
E|-------------------------|-------------------------|
  1 & 2 & 3 & 4 &  1 & 2 & 3 & 4 &

G|-------------------------|--------7--9----9--7-----|
D|-------9------10-9-------|----10-------------------|
A|-10-10----10-------10-8--|-------------------------|
E|-------------------------|-------------------------|
  1 & 2 & 3 & 4 &  1 & 2 & 3 & 4 &

G|-------------------------|--------7--9----9--7-----|
D|-------9------10-9-------|----10-------------------|
A|-10-10----10-------10-8--|-------------------------|
E|-------------------------|-------------------------|
  1 & 2 & 3 & 4 &  1 & 2 & 3 & 4 &

G|-----------------|-----------------|-----------------|-----------------|
D|-----------------|-----------------|-----------------|-----------------|
A|-----------------|-----------------|-----------------|-----------------|
E|-3-3-3-3-3-3-0-1-|---1-1-----1-1-0-|-3-3-3---3-3-0-1-|---1-1-----1-1-0-|
  1 & 2 & 3 & 4 &  1 & 2 & 3 & 4 &  1 & 2 & 3 & 4 &  1 & 2 & 3 & 4 &

G|-----------------|-----------------|-----------------|
D|-----------------|-----------------|-----------------|
A|-----------------|-----------------|-----------------|
E|-3-3-3-3-3-3-0-1-|---1-1-----1-1-0-|-3-3-3---3-3-0-1-|
  1 & 2 & 3 & 4 &  1 & 2 & 3 & 4 &  1 & 2 & 3 & 4 &

Almost there ...

Sign in to get your own page with links to favourite songs and more. You are just one click away...

Login with Facebook Login with Google