Log in

One click and you are in

Login with Facebook Login with Google

Why sign up and log in

Guitar Tabs Explorer
Traffic guitar tabs for Rock and roll stew

Guitar tabs

Intro:
      A chord diagramCmaj7Cmaj7   A chord diagramBm7Bm7     A chord diagramAm7Am7                                 A chord diagramEbmaj7Ebmaj7  A chord diagramDm7Dm7   A chord diagramBb majorBb
e|----3-------2-------5-----------------------------------6-------5-----6----|
B|----5-------3-------5-----------------------------------8-------6-----6----|  (x1)
G|----4-------2-------5-----------------------------------7-------5-----7----|
D|----5-------4-------5-----------------------------------8-------7-----8----|
A|----3-------2-------7-----------------------3-----------6-------5-----8----|
E|--------------------5-------------3---5---------5---------------------6----|
Verse 1:
e|---------------------------------------------------------------------------|
B|---------------------------------------------------------------------------|  (x2)
G|---------------------------------------------------------------------------|
D|-----------------------------------------7---5-----------------------------|
A|------------------------3-------------------------7------------------------|
E|--3---5------0--3---5----------3---5------------------5--------------------|

      A chord diagramCmaj7Cmaj7  A chord diagramBm7Bm7    A chord diagramAm7Am7                           A chord diagramCmaj7Cmaj7  A chord diagramBm7Bm7   A chord diagramAm7Am7
e|----3------2------5-----------------------------3------2-----5-------------|
B|----5------3------5-----------------------------5------3-----5-------------|  (x1)
G|----4------2------5-----------------------------4------2-----5-------------|
D|----5------4------5-----------------------------5------4-----5-------------|
A|----3------2------7-------------------3---------3------2-----7-------------|
E|------------------5-----------3---5-------5------------------5-------------|

e|---------------------------------------------------------------------------|
B|---------------------------------------------------------------------------|  (x1)
G|---------------------------------------------------------------------------|
D|-----------------------------------------------------7---5-----------------|
A|--------------------------3----------------------------------7-------------|
E|--3---5-------0---3---5----------0---3---5---5-------------------5---5-----|

Interlude:
e|---------------------------------------------------------------------------|
B|---------------------------------------------------------------------------|
G|---------------------------------------------------------------------------|
D|-----------------------------------------------------------------------5---|
A|---------------------------------3-------------------------3---5-/-7-------|
E|---5---5------5---5------0---3--------------5---5------5-------slide-------|

Verse 2:
e|---------------------------------------------------------------------------|
B|---------------------------------------------------------------------------|  (x2)
G|---------------------------------------------------------------------------|
D|-----------------------------------------7---5-----------------------------|
A|------------------------3-------------------------7------------------------|
E|--3---5------0--3---5----------3---5------------------5--------------------|

      A chord diagramCmaj7Cmaj7  A chord diagramBm7Bm7    A chord diagramAm7Am7                           A chord diagramCmaj7Cmaj7  A chord diagramBm7Bm7   A chord diagramAm7Am7
e|----3------2------5-----------------------------3------2-----5-------------|
B|----5------3------5-----------------------------5------3-----5-------------|
G|----4------2------5-----------------------------4------2-----5-------------|
D|----5------4------5-----------------------------5------4-----5-------------|
A|----3------2------7-------------------3---------3------2-----7-------------|
E|------------------5-----------3---5-------5------------------5-------------|

e|---------------------------------------------------------------------------|
B|---------------------------------------------------------------------------|
G|---------------------------------------------------------------------------|
D|-----------------------------------------------------7---5-----------------|
A|--------------------------3----------------------------------7-------------|
E|--3---5-------0---3---5----------0---3---5---5-------------------5---5-----|


Solo:
e|---------------------------------------------------------------------------|
B|---------------------------------------------------------------------------|  (Repeat as desired)
G|---------------------------------------------------------------------------|
D|-----------------------------------------7---5-----------------------------|  (Improv in A chord diagramA majorA minor over riff)
A|------------------------3-------------------------7------------------------|
E|--3---5------0--3---5----------3---5------------------5--------------------|

      A chord diagramCmaj7Cmaj7   A chord diagramBm7Bm7     A chord diagramAm7Am7                                 A chord diagramEbmaj7Ebmaj7  A chord diagramDm7Dm7   A chord diagramBb majorBb
e|----3-------2-------5-----------------------------------6-------5-----6----|
B|----5-------3-------5-----------------------------------8-------6-----6----|  (x1)
G|----4-------2-------5-----------------------------------7-------5-----7----|
D|----5-------4-------5-----------------------------------8-------7-----8----|
A|----3-------2-------7-----------------------3-----------6-------5-----8----|
E|--------------------5-------------3---5---------5---------------------6----|

e|---------------------------------------------------------------------------|
B|---------------------------------------------------------------------------|  (x1)
G|---------------------------------------------------------------------------|
D|-----------------------------------------------------7---5-----------------|
A|--------------------------3----------------------------------7-------------|
E|--3---5-------0---3---5----------0---3---5---5-------------------5---5-----|

e|---------------------------------------------------------------------------|
B|---------------------------------------------------------------------------|  (x1)
G|---------------------------------------------------------------------------|
D|-----------------------------------------------------------------------5---|
A|---------------------------------3-------------------------3---5-/-7-------|
E|---5---5------5---5------0---3--------------5---5------5-------slide-------|


Verse 3:
e|---------------------------------------------------------------------------|
B|---------------------------------------------------------------------------|  (x2)
G|---------------------------------------------------------------------------|
D|-----------------------------------------7---5-----------------------------|
A|------------------------3-------------------------7------------------------|
E|--3---5------0--3---5----------3---5------------------5--------------------|

      A chord diagramCmaj7Cmaj7  A chord diagramBm7Bm7    A chord diagramAm7Am7                           A chord diagramCmaj7Cmaj7  A chord diagramBm7Bm7   A chord diagramAm7Am7
e|----3------2------5-----------------------------3------2-----5-------------|
B|----5------3------5-----------------------------5------3-----5-------------|
G|----4------2------5-----------------------------4------2-----5-------------|
D|----5------4------5-----------------------------5------4-----5-------------|
A|----3------2------7-------------------3---------3------2-----7-------------|
E|------------------5-----------3---5-------5------------------5-------------|

e|---------------------------------------------------------------------------|
B|---------------------------------------------------------------------------|
G|---------------------------------------------------------------------------|
D|-----------------------------------------------------7---5-----------------|
A|--------------------------3----------------------------------7-------------|
E|--3---5-------0---3---5----------0---3---5---5-------------------5---5-----|


Solo:
e|---------------------------------------------------------------------------|
B|---------------------------------------------------------------------------|  (x2)
G|---------------------------------------------------------------------------|
D|-----------------------------------------7---5-----------------------------|  (Improv in A chord diagramA majorA minor over riff)
A|------------------------3-------------------------7------------------------|
E|--3---5------0--3---5----------3---5------------------5--------------------|

      A chord diagramCmaj7Cmaj7   A chord diagramBm7Bm7     A chord diagramAm7Am7                                 A chord diagramEbmaj7Ebmaj7  A chord diagramDm7Dm7   A chord diagramBb majorBb
e|----3-------2-------5-----------------------------------6-------5-----6----|
B|----5-------3-------5-----------------------------------8-------6-----6----|  (x1)
G|----4-------2-------5-----------------------------------7-------5-----7----|
D|----5-------4-------5-----------------------------------8-------7-----8----|
A|----3-------2-------7-----------------------3-----------6-------5-----8----|
E|--------------------5-------------3---5---------5---------------------6----|


Outro:
Improv in A chord diagramBb majorBb

*********************************************
"Rock and Roll Stew"
Written by: Jim Gordon and Richard Grech
Album: The Low Spark of High Heeled Boys
Year: 1971
Special Thanks to Eric Haugen Youtube Lesson!

Almost there ...

Sign in to get your own page with links to favourite songs and more. You are just one click away...

Login with Facebook Login with Google