Log in

One click and you are in

Login with Facebook Login with Google

Why sign up and log in

Guitar Tabs Explorer
Traffic bass tabs for No face no name no number

No Face No Name No Number bass tab by Traffic

Traffic bass tabs for No face no name no number

Bass tabs with lyrics

Tuning: Standard (E A D G)

Key: B

Difficulty: Novice

NO FACE, NO NAME, NO NUMBER (Bassline)
As recorded by Traffic
(From the 1967 Album MR. FANTASY)

Words and Music by Jim Capaldi & Steve Winwood
Transcribed by Slowhand

Gtr I (E A D G) - 'Steve Winwood - Bass'

 Intro:        1st Verse:
  Q=98
 4/4
  Gtr I
   Wx4           Wx14          H    H      H    H
G|------------||-------------|-----------|-----------|
D|------------||-------------|-----------|-----------|
A|------------||-------------|-----------|-----------|
E|------------||-------------|-2---------|-2---------|


   W          W          W          H    H
G|----------|----------|----------|-----------|
D|----------|----------|----------|-----------|
A|-2--------|-2--------|----------|------6----|
E|----------|----------|-0--------|-0---------|


                                      Bridge:
   W          W          +W            Wx8
G|----------|----------|------------||--------||
D|----------|----------|------------||--------||
A|-4--------|----------|------------||--------||
E|----------|-2--------|-(2)--------||--------||

   2nd Verse:
     W          +W           W          W
G||-----------|------------|----------|------|
D||o----------|------------|----------|------|
A||o-2--------|-(2)--------|----------|------|
E||-----------|------------|-4--------|-3----|


   W          +W           W          +W
G|----------|------------|----------|---------||
D|----------|------------|----------|--------o||
A|----------|------------|----------|--------o||
E|-2--------|-(2)--------|-2--------|-(2)-----||


   W          W          W          H    H
G|----------|----------|----------|-----------|
D|----------|----------|----------|-----------|
A|-2--------|-2--------|----------|------6----|
E|----------|----------|-0--------|-0---------|


   W          W          W          W
G|----------|----------|----------|------||
D|----------|----------|----------|------||
A|-4--------|-4--------|----------|------||
E|----------|----------|-2--------|-2----||


  Bridge:                 3rd Verse:
   Wx7          W           W          +W           W
G|------------|----------||----------|------------|------|
D|------------|----------||----------|------------|------|
A|------------|----------||-2--------|-(2)--------|------|
E|------------|-2--------||----------|------------|-4----|


   W          W          +W           W          +W
G|----------|----------|------------|----------|--------||
D|----------|----------|------------|----------|--------||
A|----------|----------|------------|----------|--------||
E|-3--------|-2--------|-(2)--------|-2--------|-(2)----||


  Outro:
   W          W          W          W          W
G|----------|----------|----------|----------|------|
D|----------|----------|----------|----------|------|
A|-2--------|-0--------|-2--------|-0--------|-2----|
E|----------|----------|----------|----------|------|


   H    H      W          H    H      W          W
G|-----------|----------|-----------|----------|------*|
D|-----------|----------|-----------|----------|------*|
A|-0---------|-2--------|-0---------|-2--------|-2----*|
E|------0----|----------|------0----|----------|------*|

Lyrics:
I'm looking for a girl who has no face
She has no name, or number
And so I search within his lonely place
Knowing that I won't find her
Well, I can't stop this feeling deep in inside me
Ruling my mind

I feel no sound
Don't know where I'm bound

The scenery is all the same to me
Nothing has changed or faded
I'm a part of it, some part of me
Painted cool green, and shaded
So, try to find myself must be the only way
To feel free

I feel no sound
Don't know where I'm bound

************************************

| (n)  hold note

************************************

Almost there ...

Sign in to get your own page with links to favourite songs and more. You are just one click away...

Login with Facebook Login with Google