Log in

One click and you are in

Login with Facebook Login with Google

Why sign up and log in

Guitar Tabs Explorer
Traffic bass tabs for Feelin good live concert version

Bass tabs

  • Tuning: Standard tuning
  • Difficulty: Intermediate
-------------------------------------------------------------------
                     Artist - Traffic
                    ******************
      Song - Feelin` Good (Live At The Fillmore West 1968)
     ******************************************************
                    Tabbed By - Ayreon77
                   **********************
-------------------------------------------------------------------

Tuning = Standard


INTRO
******
G|-------------------------------|-------------------------------|
D|---7-7-----7-7-----7-7-----7-7-|---7-7-----7-7-----7-7-----7-7-|
A|-7-------7-------7-------7-----|-7-------7-------7-------7-----|
E|-------------------------------|-------------------------------|


G|----------------------------------|--------------------------------|
D|---7-7--10---7-7-----7-7------7-7-|---7-7------7-7-----7-7-----7-7-|
A|-7---------7-------7------5-7-----|-7------5-7-------7------5------|
E|----------------------------------|--------------------------------|


00:21
G|-----------------------------|------------------------------|
D|---5-5----5---5---5-5----5-5-|---7-7-7----7-7-7-7-----7-7-7-|
A|-5------5---5---5------5-----|-7--------7-----------7-------|
E|-----------------------------|------------------------------|


00:30
G|-----------------|-----------------|-----------------|-----------------|
D|-----5---7---7~~-|-----5---7---7~~-|-----5---7---7~~-|-----5---7---7~~-|
A|-5-7---7---7-----|-5-7---7---7-----|-5-7---7---7-----|-5-7---7---7-----|
E|-----------------|-----------------|-----------------|-----------------|

00:40
G|-----------------|-----------------|-----------------|-----------------|
D|-----5---7---7~~-|-----5---7---7~~-|-----5---7---7~~-|-----5---7---7~~-|
A|-5-7---7---7-----|-5-7---7---7-----|-5-7---7---7-----|-5-7---7---7-----|
E|-----------------|-----------------|-----------------|-----------------|


00:50
G|-----------------|-----------------|-----------------|
D|-----5---7---7~~-|-----5---7---7~~-|-----5---7---5-7-|
A|-5-7---7---7-----|-5-7---7---7-----|-5-7---7---7-----|
E|-----------------|-----------------|-----------------|


00:59
G|-------------------------------|
D|---7-7-----7-7-----7-7-----7-7-|
A|-7-------7-------7-------7-----|
E|-------------------------------|


------------------
01:10

VERSE 1
********                          01:20
G|-------------------------------|-----------------------|
D|---7-7-----7-7-----7-7-----7-7-|---7-7-----7-7---7-5-7-|
A|-7-------7-------7-------7-----|-7-------7-------------|
E|-------------------------------|-----------------------|


------------------
01:31
ORGAN
******
G|---------------------|---------------------|
D|-7~~-7-5~~-5---------|-7~~-7-5~~-5---------|
A|-------------8~~-7~~-|-------------8~~-7~~-|
E|---------------------|---------------------|


------------------
01:41

VERSE 2 - Quiet
********
G|-----------------|-----------------|-------------------|
D|-7~~-5~~---------|-7~~-5~~---------|-7~~-5~~---------7-|
A|---------8~~-7~~-|---------8~~-7~~-|---------8~~-7~~---|
E|-----------------|-----------------|-------------------|


------------------
02:03
ORGAN
******
G|---------------------|---------------------|
D|-7~~-7-5~~-5---------|-7~~-7-5~~-5---------|
A|-------------8~~-7~~-|-------------8~~-5~~-|
E|---------------------|---------------------|


------------------
02:14
FUNKY PART
***********
G|--------------------------|--------------------------------|
D|-5-5--5-------------------|---5-5--5-----------------------|
A|--------8-8--8-6-6--6-5~~-|-5--------8-8-8--8-6-6-6--6-5-5-|
E|--------------------------|--------------------------------|


G|--------------------------------|
D|---5-5--5-----------------------|
A|-5--------8-8-8--8-6-6-6--6-5-5-|
E|--------------------------------|


02:29
G|--------------------------------|------------------------------------|
D|---5-5-5--5---------------------|---5-5-5--5-------------------------|
A|-5----------8-8-8--8-6-6--6-5~~-|-5----------8-8-8--8-6-6-6--6-5-5-5-|
E|--------------------------------|------------------------------------|


02:39
G|----------------------------|--------------------------------|
D|---5-5--5-------------------|---5-5--5-----------------------|
A|-5--------8-8--8-6-6--6-5-5-|-5--------8-8--8-6-6--6-5-5-5-5-|
E|----------------------------|--------------------------------|


02:54
G|--------------------------------|--------------------------------|
D|---5-5-5--5---------------------|---5-5-5--5---------------------|
A|-5----------8-8--8-6-6--6-5-5-5-|-5----------8-8--8-6-6--6-5-5-5-|
E|--------------------------------|--------------------------------|


G|---------------------------------------|
D|---5-5-5--5----------------------------|
A|-5----------8-8-8--8-6-6-6--6--7-7-7-7-|
E|---------------------------------------|


------------------
03:04
ORGAN
******
G|-----------------------|-------------------------|
D|-7~~-7-5~~-5-----------|-7~~-7-5~~-5-----------7-|
A|-------------8~~-8-7~~-|-------------8~~-8-7~~---|
E|-----------------------|-------------------------|


03:20
G|-----------------|-------------|
D|-7~~-5~~---------|-7~~-5~~-----|
A|---------8~~-7~~-|---------8~~-|
E|-----------------|-------------|


------------------
03:30

VERSE 3 - Quiet
********
G|-----------------|-----------------|-------------------|
D|-7~~-5~~---------|-7~~-5~~---------|-7~~-5~~---------7-|
A|---------8~~-7~~-|---------8~~-7~~-|---------8~~-7~~---|
E|-----------------|-----------------|-------------------|


------------------
03:51
ORGAN
******
G|-----------------|-----------------|
D|-7~~-5~~---------|-7~~-5~~---------|
A|---------8~~-7~~-|---------8~~-7~~-|
E|-----------------|-----------------|

04:02
G|---------|---------|
D|---------|-6~~-8~~-|
A|-6~~-8~~-|---------|
E|---------|---------|


------------------
04:09
DRUM SECTION
*************
G|----------------|----------------|----------------|-----------------------s-|
D|-10-10-10-8-8-8-|-10-10-10-8-8-8-|-10-10-10-8-8-8-|-10--10--10--8--8--8--8\-|
A|----------------|----------------|----------------|-------------------------|
E|----------------|----------------|----------------|-------------------------|


------------------
04:20
ORGAN SOLO
***********
G|------|
D|-5--5-|
A|------|
E|------|X40

05:23 add lib with this to make it more funky
G|-----------|
D|-5--5----5-|
A|-----------|
E|-------3---|

06:00
G|------|
D|-5--5-|
A|------|
E|------|

06:17          06:22
G|---------------------------------------------------------------------------------|
D|-5~~~~~~~-----s-----8--10-8--10-8--10-8--7-7-7--8-8-8--7-7-7-7-7-7-5-6-7-7-7-7-7-|
A|-------------3\5-5---------------------------------------------------------------|
E|---------------------------------------------------------------------------------|


------------------
06:34
ORGAN
******
G|-----------------|-----------------|
D|-7~~-5~~---------|-7~~-5~~---------|
A|---------8~~-7~~-|---------8~~-7~~-|
E|-----------------|-----------------|


------------------

BREAK
------------------

OUTRO
******
G|-------------------------s-|
D|-7---7--7---7-7-7-7-7---7\-|
A|---------------------------|
E|---------------------------|

Almost there ...

Sign in to get your own page with links to favourite songs and more. You are just one click away...

Login with Facebook Login with Google