Log in

One click and you are in

Login with Facebook Login with Google

Why sign up and log in

Guitar Tabs Explorer
Traffic bass tabs for Empty pages

Bass tabs with lyrics

Tuning: Standard (E A D G)

Key: A

Difficulty: Intermediate
Gtr I (E A D G) - 'Steve Winwood - Bass'

 Intro:
 Q=98
 4/4
 Gtr I
   Q  E. S E Q.     Q  E. S E Q.     Q  E. S E Q.     E E E E +H
G|----------------|----------------|----------------|----------------|
D|----7--7---7----|----7--7---7----|----7--7--------|-----7----------|
A|---------7------|---------7------|---------7-3----|-5-5---5-(5)----|
E|----------------|----------------|----------------|----------------|


                    1st Verse:
   +Q   E E +H        E E E. S E E E. S   E E E E E E E. S   E E E. S E E E. S
G|-----------------||-------------------|------------------|--------------------|
D|-----------------||-------------------|------------------|----------7-7-------|
A|-(5)----5-(5)----||-----------------4-|-7-7--------------|-7-7----5-----------|
E|------5----------||-0-0----4-5-5------|-------7-0-0----0-|-----------------5--|


   E E S S E E E E. S   E E E. S E E E. S
G|--------------------|-------------------|
D|--------------------|-------------------|
A|-7-7---7----------4-|-7-7---------------|
E|---------7-0-0------|--------0-5-5----7-|


   E E Q  E. S +S  S S S   E E E. S E E E. S
G|-----------------------|-------------------|
D|-----------------------|-------------------|
A|-7-7-5--4--2-(2)-0-----|-------------------|
E|-------------------4-2-|-0-0----4-5-5----7-|

                         2nd & 3rd Verses:
   E E S S S S E E E. S     E E E. S E E E S S
G|----------------------||---------------------|
D|----------------------||o--------------------|
A|-7-7---7-5------------||o-7-7------------2-4-|
E|-----------7-0-0----7-||---------4-5-5-------|


   E E Q  E. S +S  S E   E E S S E E E E. S
G|---------------------|--------------------|
D|-2-2-0---------------|--------------------|
A|--------4--2-(2)-0---|-7------------------|
E|-------------------4-|---0---0-4-5-5----5-|


   E E S S E E E S S S S   E E E. S E E S S S S   E E Q  E. S +S  S S S
G|-----------------------|----------------------|------------------------|
D|-----------------------|-2-2------------------|-2----------------------|
A|-7-7---7-------------2-|----------------0-2-4-|-----5--4--2-(2)-0------|
E|---------7-0-0---0-4---|--------0-5-5---------|---0---------------4-2--|


                                            Chorus:
   E E E. S E E S S E   E E S S S S E Q  E    Q  E. S E Q.     Q  E. S E Q.
G|--------------------|--------------------||----------------|----------------|
D|--------------------|-2-2---------2------||-7--------------|----7--7--------|
A|----------0-0---2-4-|-------4-5-4--------||----------------|---------7------|
E|-0-0----4-----------|---------------0--7-||----5--5-5-5----|-----------5----|


   Q  E. S E Q.     E E E E +H       +Q   E. S E Q.     Q  E. S E Q.
G|----------------|----------------|------------------|-----------------|
D|----7--7--------|----------------|------7--7--------|----7--7---------|
A|---------7------|-5-5---5-(5)----|-(5)-------7------|---------7-------|
E|-----------5----|-----5----------|-------------5----|-----------5-----|


   Q  E. S E Q.     E E E E +H
G|----------------|-----------------||
D|----7--7--------|----------------o||
A|---------7------|-5-5---5-(5)----o||
E|-----------5----|-----5-----------||


  Electric Piano Solo:
     E E E. S E E E. S   E E E. S E E E. S
G||--------------------|-------------------|
D||o-------------------|-2-2---------------|
A||o----------0-0----4-|--------2--------2-|
E||--0-0----4----------|----------0-0------|


                                             Chorus:
   E E E. S E E Q    Q  Q  E. S +S  S S S 10x Q  E. S E Q.     Q  E. S E Q.
G|-----------------|-----------------------||----------------|-----------------|
D|-2-2-------------|----2-----------------o||-----------7----|----7--7---7-----|
A|----------0-0-4--|-------4--2-(2)-0-----o||---------7------|---------7-------|
E|--------4--------|-0----------------4-2--||-0--5--5--------|-----------------|


   Q  E. S E Q.     E E E E +H       Q  E. S E Q.     Q  E. S E Q.
G|----------------|----------------|----------------|-----------------|
D|----7--7--------|----------------|----7--7--------|----7--7---------|
A|---------7------|-5-5---5-(5)----|---------7------|---------7-------|
E|-----------5----|-----5----------|-----------5----|-----------5-----|


                                    4th Verse:
   Q  E. S E Q.     E E E E +H        E E E. S E E E. S   E E S S E E E Q
G|----------------|----------------||-------------------|------------------|
D|----7--7--------|----------------||-------------------|-2-2---2----------|
A|---------7------|-5-5---5-(5)----||-7-7------0-0----4-|---------4--------|
E|-----------5----|-----5----------||--------4----------|-----------0-0----|


   E E E. S E E S S S S   E E S S E E E E E   E E S S E E E E. S
G|----------------------|-------------------|---------------------|
D|------------------0-1-|-2-2---2-----------|-2-2-----------------|
A|-7-7------0-0---4-----|---------4-------4-|-----------0-0----2--|
E|--------4-------------|-----------0-0-----|-------3-4-----------|


   E E S S E E E E. S   E E S S S S E E S S S S   E E E E. E. S S E
G|--------------------|-------------------------|-------------------|
D|-2-2---2------------|-2-2-------------------2-|-2-2-------------0-|
A|---------4--------4-|-------------0-0---2-4---|----------0--1-2---|
E|-----------0-0------|-------2-4-4-------------|-------4-----------|


   Q  E. S Q  S S E   Q  E. E S E E S S   E. S E E E Q  E   Q  Q  E. E S E
G|-------1-2--------|-------------------|-----------------|----7--6--4------|
D|-2------------0-1-|-2-------------0-1-|-2--2------------|------------7-6--|
A|------------------|-------0-0-1-2-----|--------0---0--4-|-7---------------|
E|------------------|----4--------------|------4----------|-----------------|


                                           Outro:
   E E E S S E E S S S S   Q  Q  E. E S E    W
G|-----------------------|----------------||------|
D|-------------------0-0-|-2--------------||------|
A|-7---------0-0---2-----|----4--2--------||------|
E|---0---2-4-------------|----------4-2-0-||-0----|


   W          H    Q  Q    Q  Q  H      +W
G|----------|------------|-------1----|-(1)----*|
D|----------|------------|-2--4-------|--------*|
A|----------|------2--4--|------------|--------*|
E|-5--------|-0----------|------------|--------*|

************************************
Duration Legend

W - whole; H - half; Q - quarter; E - 8th; S - 16th; a - acciaccatura;
+ - note tied to previous; . - note dotted;
Duration letters will always appear directly above the note/fret number it represents the
duration for.  Duration letters with no fret number below them represent rests.
Uncapitalized letters represent notes that are staccato (1/2 duration).

|  (n)   -  note tied to previous
**************************************

Almost there ...

Sign in to get your own page with links to favourite songs and more. You are just one click away...

Login with Facebook Login with Google