Log in

One click and you are in

Login with Facebook Login with Google

Why sign up and log in

Guitar Tabs Explorer
Toxic Holocaust tabs for Feedback blood and distortion

Feedback Blood And Distortion tab - Toxic Holocaust

Toxic Holocaust tabs for Feedback blood and distortion

Guitar tabs with lyrics

Feedback, Blood And Distortion

                                            Toxic Holocaust


Intro:
A chord diagramD MajorD||--------------------------------|--------------------------------|
A chord diagramA augmentedA||--------------------------------|--------------------------------|
A chord diagramFF||--------------------------------|--------------------------------|
A chord diagramC majorC||--------------------------------|--------------------------------|
A chord diagramG+G||-3--3-3-3-3-3-3-3-3-6/5---8/6---|-3--3-3-3-3-3-3-3-3-6/5---8/6---|
A chord diagramD MajorD||-1--1-1-1-1-1-1-1-1-4/3-0-6/4-0-|-1--1-1-1-1-1-1-1-1-4/3-0-6/4-0-|
       * * * * * * * *     *     *      * * * * * * * *     *     *

                                x3
--------------------------------|
--------------------------------|
--------------------------------|
--------------------------------|
-3--3-3-3-3-3-3-3-3-6/5---8/6---|
-1--1-1-1-1-1-1-1-1-4/3-0-6/4-0-|
    * * * * * * * *     *     *


A chord diagramD MajorD||----------------------------------||
A chord diagramA augmentedA||----------------------------------||
A chord diagramFF||----------------------------------||
A chord diagramC majorC||----------------------------------||
A chord diagramG+G||-3--3-3-3-3-3-3-3-3-6/5---8/6---3-||
A chord diagramD MajorD||-1--1-1-1-1-1-1-1-1-4/3-0-6/4-0-1-||
       * * * * * * * *     *     *


Riff 1:

                          x3
||-------------------------||----------------||
||-------------------------||----------------||
||-------------------------||----------------||
||-6-5-3-5-----------------||-/8-8-8---------||
||-4-3-1-3-3-3-3-3-3-3-3-3-||-/6-6-6-6-6--6--||
||-------------------------||--------4-4--4--||
           * * * * * * * *

                          x3
||-------------------------||---------------||
||-------------------------||---------------||
||-------------------------||---------------||
||-6-5-3-5-----------------||-/8-8-8--------||
||-4-3-1-3-3-3-3-3-3-3-3-3-||-/6-6-6-6-6-6--||
||-------------------------||--------4-4-4--||
           * * * * * * * *

Riff 2:


||-----------------------------------|
||-----------------------------------|
||-----------------------------------|
||------------------------------8----|
||-5-5-5-5-5-5-5-5-5-5-5-5-5-/8-6----|
||-3-3-3-3-3-3-3-3-3-3-3-3-3-/6------|
A chord diagramA augmentedA burst of confusion rocks your mind

||-----------------------------------|
||-----------------------------------|
||-----------------------------------|
||------------------------------8----|
||-5-5-5-5-5-5-5-5-5-5-5-5-5-/8-6----|
||-3-3-3-3-3-3-3-3-3-3-3-3-3-/6------|
 As the shadows from the warhead fills the sky

||------------------------------------------------------|
||------------------------------------------------------|
||------------------------------------------------------|
||----------------------------------------------------8-|
||-5-------------5-------------5-------------5-----/8-6-|
||-3-3-3-3-3-3-3-3-3-3-3-3-3-3-3-3-3-3-3-3-3-3-3-3-/6---|
     * * * * * *   * * * * * *   * * * * * *   * *
   Endless rioting of the masses
     as we heed Satan's call

|-------------------------------------------|
|-------------------------------------------|
|-------------------------------------------|
|-------------------------------------------|
|-5-------------5-------------/8-8-8-6-6-6--|
|-3-3-3-3-3-3-3-3-3-3-3-3-3-3-/6-6-6-4-4-4--|
    * * * * * *   * * * * * *
   as we fan the flames higher
    and disintegrate you all.


Riff 1:

                          x3
||-------------------------||---------------||
||-------------------------||---------------||
||-------------------------||---------------||
||-6-5-3-5-----------------||-/8-8-8--------||
||-4-3-1-3-3-3-3-3-3-3-3-3-||-/6-6-6-6-6-6--||
||-------------------------||--------4-4-4--||
           * * * * * * * *

                          x3
||-------------------------||---------------||
||-------------------------||---------------||
||-------------------------||---------------||
||-6-5-3-5-----------------||-/8-8-8--------||
||-4-3-1-3-3-3-3-3-3-3-3-3-||-/6-6-6-6-6-6--||
||-------------------------||--------4-4-4--||
           * * * * * * * *


Riff 2b:


||-----------------------------------|
||-----------------------------------|
||-----------------------------------|
||------------------------------8----|
||-5-5-5-5-5-5-5-5-5-5-5-5-5-/8-6----|
||-3-3-3-3-3-3-3-3-3-3-3-3-3-/6------|
 The blood of the victims drench the walls

||-----------------------------------|
||-----------------------------------|
||-----------------------------------|
||------------------------------8----|
||-5-5-5-5-5-5-5-5-5-5-5-5-5-/8-6----|
||-3-3-3-3-3-3-3-3-3-3-3-3-3-/6------|
 But every night they still fill the halls

||------------------------------------------------------|
||------------------------------------------------------|
||------------------------------------------------------|
||----------------------------------------------------8-|
||-5-------------5-------------5-------------5-----/8-6-|
||-3-3-3-3-3-3-3-3-3-3-3-3-3-3-3-3-3-3-3-3-3-3-3-3-/6---|
     * * * * * *   * * * * * *   * * * * * *   * *
  Coming for the chaos to witness and partake
        in the fight for their lives

|------------------------------------------|
|------------------------------------------|
|------------------------------------------|
|------------------------------------------|
|-5-------------5-------------6-6-6-8-8-8--|
|-3-3-3-3-3-3-3-3-3-3-3-3-3-3-4-4-4-6-6-6--| <--**little change**
    * * * * * *   * * * * * *
      and the wall of sonic hate.


Chorus:

                                 x2
||-----------------------------------|
||-----------------------------------|
||-----------------------------------|
||-5-5--5-5/8-6-3-5-5--5-5-5---------|
||-3-3--3-3/6-4-1-3-3--3-3-3-3-3-3-3-|
||-----------------------------------|


                                 x2
||-----------------------------------|
||-----------------------------------|
||-----------------------------------|
||-5-5--5-5/8-6-3-5-5--5-5-5---------|
||-3-3--3-3/6-4-1-3-3--3-3-3-3-3-3-3-|
||-----------------------------------|
   Feedback, Blood, and Distortion...
   Feedback, Blood, and Distortion...


Riff 3:

||------------------------------------------------------------------------------|
||------------------------------------------------------------------------------|
||------------------------------------------------------------------------------|
||-----------------------------------------5-3----------------------------------|
||-3-3-3-3-3-3-3-3--3-3-3-3-3-3-3--3-3-3-3-3-1-6--6-6-6-6-6-6-6-6-6-6-6-6-6-6-6-|
||-1-1-1-1-1-1-1-1--1-1-1-1-1-1-1--1-1-1-1-----4--4-4-4-4-4-4-4-4-4-4-4-4-4-4-4-|

---------------------------------------|
---------------------------------------|
---------------------------------------|
---------------------------------------|
-------5-5-5-5-5-5-5-5-6-6-6-6-8-8-8-8-|
-4h6p4-3-3-3-3-3-3-3-3-4-4-4-4-6-6-6-6-|


                          x3
||-------------------------||----------------||
||-------------------------||----------------||
||-------------------------||----------------||
||-6-5-3-5-----------------||-/8-8-8---------||
||-4-3-1-3-3-3-3-3-3-3-3-3-||-/6-6-6-6-6--6--||
||-------------------------||--------4-4--4--||
           * * * * * * * *

Repeat

Riff 2b:

In the gutter we're fighting for our lives
Our metal weapons gleaming in the night
Your fate is in our hands
your funeral's just begun
as the weak are cast aside
and the soldiers are marching on


Chorus:
Feedback, Blood, and Distortion...
Feedback, Blood, and Distortion...


Riff 3:

||------------------------------------------------------------------------------|
||------------------------------------------------------------------------------|
||------------------------------------------------------------------------------|
||-----------------------------------------5-3----------------------------------|
||-3-3-3-3-3-3-3-3--3-3-3-3-3-3-3--3-3-3-3-3-1-6--6-6-6-6-6-6-6-6-6-6-6-6-6-6-6-|
||-1-1-1-1-1-1-1-1--1-1-1-1-1-1-1--1-1-1-1-----4--4-4-4-4-4-4-4-4-4-4-4-4-4-4-4-|

---------------------------------------|
---------------------------------------|
---------------------------------------|
---------------------------------------|
-------5-5-5-5-5-5-5-5-6-6-6-6-8-8-8-8-|
-4h6p4-3-3-3-3-3-3-3-3-4-4-4-4-6-6-6-6-|
                                 * * *


Riff 4:

                          x3
||-------------------------|
||-------------------------|
||-------------------------|
||-------------------------|
||-3-5-5-3-6-6-3-5-5-6-6-6-|
||-1-3-3-1-4-4-1-3-3-4-4-4-|
 ...And overdose of death...

||---------------------------|
||---------------------------|
||---------------------------|
||---------------------------|
||-3-5-5-3-6-6-3-5-5-6-6-5-3-|
||-1-3-3-1-4-4-1-3-3-4-4-3-1-|
  ...And overdose of death...


Chorus:

                                 x4
||-----------------------------------|
||-----------------------------------|
||-----------------------------------|
||-5-5--5-5/8-6-3-5-5--5-5-5---------|
||-3-3--3-3/6-4-1-3-3--3-3-3-3-3-3-3-|
||-----------------------------------|
...Feedback, Blood, and Distortion...


Outro:

||------------------------------------------------------------------------------|
||------------------------------------------------------------------------------|
||------------------------------------------------------------------------------|
||-----------------------------------------5-3----------------------------------|
||-3-3-3-3-3-3-3-3--3-3-3-3-3-3-3--3-3-3-3-3-1-6--6-6-6-6-6-6-6-6-6-6-6-6-6-6-6-|
||-1-1-1-1-1-1-1-1--1-1-1-1-1-1-1--1-1-1-1-----4--4-4-4-4-4-4-4-4-4-4-4-4-4-4-4-|

---------------------------------------------------|
---------------------------------------------------|
---------------------------------------------------|
---------------------------------------------------|
-------5-5-5-5-5-5-5-5-6-6-6-6-8-8-8-8-10~/\/\/\/\-|
-4h6p4-3-3-3-3-3-3-3-3-4-4-4-4-6-6-6-6-8~~/\/\/\/\-|

Almost there ...

Sign in to get your own page with links to favourite songs and more. You are just one click away...

Login with Facebook Login with Google