Log in

One click and you are in

Login with Facebook Login with Google

Why sign up and log in

Guitar Tabs Explorer
Devin Townsend tabs for Universe in a ball

Guitar tabs

Devin Townsend Project - Universe In A chord diagramA augmentedA Ball
Album - Addicted
Tabbed by: Anthony

Video of me playing this song:

http://www.youtube.com/watch v=7dUIJVm3TEg

Pretty easy song, here are the riffs as I play them, not hard to piece together or
out the strumming. Have fun! The tuning is 1 step below Dev's usual Open A chord diagramC majorC tuning.
Tuning : Open A chord diagramBb majorBb (A chord diagramBb majorBb A chord diagramFF A chord diagramBb majorBb A chord diagramFF A chord diagramBb majorBb A chord diagramD MajorD)

^ = bend
\ = slide

Repeat as needed throughout song, sometimes you can make it a powerchord
---------------------------------------------|
---------------------------------------------|
---------------------------------------------|
---------------------------------------------|
---------------------------------------------|
-0-00-0--00--00-0-00-00-0-0-2222-3333--------|

---------------------------------------------|
---------------------------------------------|
---------------------------------------------|
---------------------------------------------|
---------------------------------------------|
-0-00-0--00--00-0-00-00-0-0-6666-3333--------|

Change up part
--------------------------------------------------|
--------------------------------------------------|
--------------------------------------------------|
--------------------------------------------------|
----------------------------4444--4444------3^----|
-0-00-0--00--00-0-00-00-0-0------0-----0-00-------|

---------------------------------------------|
---------------------------------------------|
---------------------------------------------|
---------------------------------------------|
---------------------------------------------|
-0-00-0--00--00-0--2222-3333-----------------|

Fill riff
-----------------------------------|
-----------------------------------|
-----------------------------------|
-2-2-2-2-3--2--2-2-2-2-3--2--------|
-2-2-2-2-3--2--2-2-2-2-3--2--------|
-2-2-2-2-3--2--2-2-2-2-3--2--------|
PM       .             .

Arpeggios (not 100% on these)
-----------------------------------|
-----------------------------------|
-----------4-----------------------|
---------6---6---------------------|Repeat
-----4-7-------7-4-----------------|
-4-7---------------7-4-7-----------|

-----------------------------------|
-----------------------------------|
-------------4---------------------|
-----------5---5-------------------|
-------4-7-------7-4---------------|
-2-5-2---------------5-2-5---------|

Change up on the last one
-----------------------------------|
-----------------------------------|
-----------3-----------------------|
---------5---5---------------------|
-----3-7-------7-3-----------------|
-1-5---------------5-1-5-----------|


Chorus riff (notes/chords, strumming is easy!)
----|-------------------------------------|
----|-------------------------------------|
-5--|-------------------------------------|
-5--|-------------------------------------|
-3--|-------------------------------------|
----|-4-4444-44-4444--3-3333-33-3333-0-00-|

Change between these 2 chords
------|----------------------------------|
------|----------------------------------|
-4--5-|----------------------------------|
-4--4-|----------------------------------|
-2--2-|----------------------------------|
------|-3-3333-33-3333-33-3333-33-33--0--|

-------------------------------------|
-------------------------------------|
-------------------------------------|
-------------------------------------|
-------------------------------------|
-4-4444-44-4444--3-3333-33-3333-0-00-|

Other fills riff later in the song
-----------------------------------|
-----------------------------------|
-----------------------------------|
-----------------------------------|
-----------------------------------|

Almost there ...

Sign in to get your own page with links to favourite songs and more. You are just one click away...

Login with Facebook Login with Google