Log in

One click and you are in

Login with Facebook Login with Google

Why sign up and log in

Guitar Tabs Explorer
Tourniquet tabs for Crawl to china

Guitar tabs with lyrics

Crawl to China
Tourniquet
Crawl to China
1997

Tune to A chord diagramEb MajorEb
*=Harmonic
\ bend up
x=muted strings (left hand)

Offspring-like drum intro with crazy guitar and then

Riff 1 x5
---------------|-----------------|
---------------|-----------------|
---(*)---------|-----------------|
--2-5-5/9-9-9--|--9\2-2-2--2--8--|
--2-5-5/9-9-9--|--9\2-2-2--2--8--|
--0-3-3/7-7-7--|--7\0-0-0--0--6--|
Is God asking you to crawl ....
-----------|
-----------|
-----------|
-----2-----|
-----2-----|
-----0-----|


Riff 1 x6
---------------|-----------------|
---------------|-----------------|
---(*)---------|-----------------|
--2-5-5/9-9-9--|--9\2-2-2--2--8--|
--2-5-5/9-9-9--|--9\2-2-2--2--8--|
--0-3-3/7-7-7--|--7\0-0-0--0--6--|
Is this the concentration ....

Riff 2 x3
-----------------|
-----------------|
-----------------|
--2---5---^---9--|
--2---5---7---9--|
--0---3-------7--|
Crawl to China

Riff 1 x6
---------------|-----------------|
---------------|-----------------|
---(*)---------|-----------------|
--2-5-5/9-9-9--|--9\2-2-2--2--8--|
--2-5-5/9-9-9--|--9\2-2-2--2--8--|
--0-3-3/7-7-7--|--7\0-0-0--0--6--|
He is faithful; it .....

>From the cold barren Arctic to the .....


Riff 2 x3                 Riff 3 x7
-----------------|       |-------------------|
-----------------|       |-------------------|
-----------------|       |-------------------|
--2---5---^---9--|       |--2-2---2--2-2--2--|
--2---5---7---9--|       |--2-2---2--2-2--2--|
--0---3-------7--|       |--0-0---0--0-0--0--|
Crawl to China

On this part Aaron uses some crazy weird guitar stuff so I can't really
match the sound, or even tell if the notes are right. So this is my best
shot.


Riff 4 x3
---------------|--------------|----------------------|
---------------|--------------|----------------------|
---------------|--------------|----------------------|
--2--8/9-8/9---|--8/9-8/9--2--|--8/9-8/9---8/9---7\--|
--2--6/7-6/7---|--6/7-6/7--2--|--6/7-6/7---6/7-------|
--0------------|-----------0--|----------------------|

---------------|--------------|----------------------------|
---------------|--------------|----------------------------|
---------------|--------------|----------------------------|
--2--8/9-8/9---|--8/9-8/9--2--|--8/9-8/9------------9-8-7--|
--2--6/7-6/7---|--6/7-6/7--2--|--6/7-6/7---6/7--10---------|
--0------------|-----------0--|----------------------------|


Riff 1 x6
---------------|-----------------|
---------------|-----------------|
---(*)---------|-----------------|
--2-5-5/9-9-9--|--9\2-2-2--2--8--|
--2-5-5/9-9-9--|--9\2-2-2--2--8--|
--0-3-3/7-7-7--|--7\0-0-0--0--6--|
Is emotional rigor mortis ....

Riff 2 x6
-----------------|
-----------------|
-----------------|
--2---5---^---9--|
--2---5---7---9--|
--0---3-------7--|
Crawl ....
Drum part again

Riff 5
----------------------|----------------------|
----------------------|----------------------|
----------------------|----------------------|
--2--x-x-x-x--2-2--2--|--2--x-x-x-x--2-2--2--|
--2--x-x-x-x--2-2--2--|--2--x-x-x-x--2-2--2--|
--0--x-x-x-x--0-0--0--|--0--x-x-x-x--0-0--0--|

-------------------------|-------------------------|
-------------------------|-------------------------|
-------------------------|-------------------------|
--2-2------------2-2--2--|--2-2------------2-2--2--|
--2-2---/-/\-\---2-2--2--|--2-2---/-/\-\---2-2--2--|
--0-0--/-/--\-\--0-0--0--|--0-0--/-/--\-\--0-0--0--|


Note= on the //\\ part you play the rythm with the x's but make it an up
and down slide.


Riff 3 x3
-------------------|
-------------------|
-------------------|
--2-2---2--2-2--2--|
--2-2---2--2-2--2--|
--0-0---0--0-0--0--|


Ending
--------------------------|--------------------------|
--------------------------|--------------------------|
--------------------------|--------------------------|
--2-2-2-----------2-2--2--|--2-2-2-----------2-2--2--|x1.5
--2-2-2--/-/\-\---2-2--2--|--2-2-2--/-/\-\---2-2--2--|
--0-0-0-/-/--\-\--0-0--0--|--0-0-0-/-/--\-\--0-0--0--|

------------------|------------------------------|
------------------|------------------------------|
------------------|------------------------------|
--2-2--2--2-2--2--|--2-2-2-2---------2--2---2----|
--2-2--2--2-2--2--|--2-2-2-2---------2--2---2----|
--0-0--0--0-0--0--|--0-0-0-0---10\---0--0---0----|

------------------------------|-----------------|
------------------------------|-----------------|
------------------------------|-----------------|
--2-2-2-2---------2--2---2----|--2-2--2--2-2-2--|
--2-2-2-2---------2--2---2----|--2-2--2--2-2-2--|
--0-0-0-0---10\---0--0---0----|--0-0--0--0-0-0--|


http://www.geocities.com/sunsetstrip/palms/8550/index.html Comments or
corrections to [conorlarkin@hotmail.com]

"Irish Joe" James Donnelly

Almost there ...

Sign in to get your own page with links to favourite songs and more. You are just one click away...

Login with Facebook Login with Google