Log in

One click and you are in

Login with Facebook Login with Google

Why sign up and log in

Guitar Tabs Explorer
Toto bass tabs for Blackeye

Bass tabs

Tuning: Standard (E A D G)

G|-------------------------|
D|-------------------------|
A|-------------------------|
E|-------------------------|
Intro:
G|-------------------------|-----------------------|---------------2--1--4-|----------------2--1--4|
D|-------------------------|-----------------------|------------3----------|------------3----------|
A|-------------------------|-----------------------|2--2-------------------|2--2-------------------|
E|--0--0--0--0--0--0--0--0-|0--0--0--0--0--0--0--0-|-----------------------|-----------------------|

G|-------------------------|-----------------------|---------------2--1--4-|----------------2--1--4|
D|-------------------------|-----------------------|------------3----------|------------3----------|
A|-------------------------|-----------------------|2--2-------------------|2--2-------------------|
E|--0--0--0--0--0--0--0--0-|0--0--0--0--0--0--0--0-|-----------------------|-----------------------|


Verse:
G|-------------------------|-----------------------|---------------2--1--4-|----------------2--1--4|
D|-------------------------|-----------------------|------------3----------|------------3----------|
A|-------------------------|-----------------------|2--2-------------------|2--2-------------------|
E|--0--0--0--0--0--0--0--0-|0--0--0--0--0--0--0--0-|-----------------------|-----------------------|

G|-------------------------|-----------------------|---------------2--1--4-|----------------2--1--4|
D|-------------------------|-----------------------|------------3----------|------------3----------|
A|-------------------------|-----------------------|2--2-------------------|2--2-------------------|
E|--0--0--0--0--0--0--0--0-|0--0--0--0--0--0--0--0-|-----------------------|-----------------------|


Chorus:
G|-------------------------|-----------------------|-----------------------|-----------------------|
D|--4--4--4--4--4--4--4--4-|0--0--0--0-------------|-----------------------|-----------------------|
A|-------------------------|------------4--4--4--4-|-----------------------|-----------------------|
E|-------------------------|-----------------------|2--2--2--2--3--3--3--3-|2----------------------|

Verse:
G|-------------------------|-----------------------|---------------2--1--4-|----------------2--1--4|
D|-------------------------|-----------------------|------------3----------|------------3----------|
A|-------------------------|-----------------------|2--2-------------------|2--2-------------------|
E|--0--0--0--0--0--0--0--0-|0--0--0--0--0--0--0--0-|-----------------------|-----------------------|

G|-------------------------|-----------------------|---------------2--1--4-|----------------2--1--4|
D|-------------------------|-----------------------|------------3----------|------------3----------|
A|-------------------------|-----------------------|2--2-------------------|2--2-------------------|
E|--0--0--0--0--0--0--0--0-|0--0--0--0--0--0--0--0-|-----------------------|-----------------------|


Chorus:
G|-------------------------|-----------------------|-----------------------|-----------------------|
D|--4--4--4--4--4--4--4--4-|0--0--0--0-------------|-----------------------|-----------------------|
A|-------------------------|------------4--4--4--4-|-----------------------|-----------------------|
E|-------------------------|-----------------------|2--2--2--2--3--3--3--3-|2----------------------|


Solo:
G|-------------------------|-----------------------|---------------2--1--4-|----------------2--1--4|
D|-------------------------|-----------------------|------------3----------|------------3----------|
A|-------------------------|-----------------------|2--2-------------------|2--2-------------------|
E|--0--0--0--0--0--0--0--0-|0--0--0--0--0--0--0--0-|-----------------------|-----------------------|

G|-------------------------|-----------------------|---------------2--1--4-|----------------2--1--4|
D|-------------------------|-----------------------|------------3----------|------------3----------|
A|-------------------------|-----------------------|2--2-------------------|2--2-------------------|
E|--0--0--0--0--0--0--0--0-|0--0--0--0--0--0--0--0-|-----------------------|-----------------------|


Chorus:
G|-------------------------|-----------------------|-----------------------|-----------------------|
D|--4--4--4--4--4--4--4--4-|0--0--0--0-------------|-----------------------|-----------------------|
A|-------------------------|------------4--4--4--4-|-----------------------|-----------------------|
E|-------------------------|-----------------------|2--2--2--2--3--3--3--3-|2----------------------|


Bridge:
G|-------------------------|-----------------------|-----------------------|-----------------------|
D|-------------------------|-----------------------|0--0-------------------|0--0-------------------|
A|-------------------------|-----------------------|-----------------------|-----------------------|
E|--0--0-------------------|0--0-------------------|-----------------------|-----------------------|

G|-------------------------|-----------------------|-----------------------|-----------------------|
D|-------------------------|-----------------------|4--4--4--4--5--5--5--5-|4----------------------|
A|--4--4-------------------|4--4-------------------|-----------------------|-----------------------|
E|-------------------------|-----------------------|-----------------------|-----------------------|


Verse:
G|-------------------------|-----------------------|---------------2--1--4-|----------------2--1--4|
D|-------------------------|-----------------------|------------3----------|------------3----------|
A|-------------------------|-----------------------|2--2-------------------|2--2-------------------|
E|--0--0--0--0--0--0--0--0-|0--0--0--0--0--0--0--0-|-----------------------|-----------------------|

G|-------------------------|-----------------------|---------------2--1--4-|----------------2--1--4|
D|-------------------------|-----------------------|------------3----------|------------3----------|
A|-------------------------|-----------------------|2--2-------------------|2--2-------------------|
E|--0--0--0--0--0--0--0--0-|0--0--0--0--0--0--0--0-|-----------------------|-----------------------|


Outro:
G|-------------------------|-----------------------|-----------------------|------------5--4-------|
D|--4--4--4--4--4--4--4--4-|4----------------------|------0--0--1--1--2--2-|3----------------------|
A|-------------------------|-----------------------|2--2-------------------|-----------------------|
E|-------------------------|-----------------------|-----------------------|-----------------------|

Almost there ...

Sign in to get your own page with links to favourite songs and more. You are just one click away...

Login with Facebook Login with Google