Log in

One click and you are in

Login with Facebook Login with Google

Why sign up and log in

Guitar Tabs Explorer
Tosin Abasi guitar tabs for Selective picking etude 1

Selective Picking Etude 1 tab by Tosin Abasi

Tosin Abasi guitar tabs for Selective picking etude 1

Guitar tabs

Tuning: Standard (E A D G B E)

Tosin Abasi's first etude for his 'selective picking' technique, uploaded on YouTube.


       \  \               \  \         \  \
 E|---------------------------------------------------|
 B|---------------------------------------------------|
 G|-12-12-12------------------------------------------|
 D|------------9h10----------------9h13-13-13----9h10-| x2
 A|-----------------------------10--------------------|
 E|--------------------12-12-12-----------------------|

       \  \               \  \          \  \
 E|---------------------------------------------------|
 B|---------------------------------------------------|
 G|-11-11-11------------------------------------------|
 D|------------7h9-----------------7h10-10-10----7h9--| x2
 A|-----------------------------9---------------------|
 E|--------------------10-10-10-----------------------|


       \  \              \  \           \  \
 E|---------------------------------------------------|
 B|---------------------------------------------------|
 G|-9--9--9-------------------------------------------|
 D|------------5h7-----------------5h9--9--9-----5h7--| x2
 A|----------------------------7----------------------|
 E|--------------------8--8--8------------------------|


       \  \               \  \          \  \
 E|---------------------------------------------------|
 B|---------------------------------------------------|
 G|-8--8--8-------------------------------------------|
 D|------------4h5-------------------4h7-7-7-----4h5--| x2
 A|-------------------------------6-------------------|
 E|--------------------7--7--7------------------------|

Everything is hammer-ons except for the notes with a \ above it; Simple 2/3/2 pattern which is extremely
similar to his 'thumping' technique. Fairly easy once you get the speed down 150 bpm:.
The chords are: A chord diagramE MajorE minor, D7, A chord diagramC majorC major, and A chord diagramBB minor

↓ Add and view comments below ↓

What do you think about this song and these tabs?

Add your comments, questions, rant or a thumbs up below.

Almost there ...

Sign in to get your own page with links to favourite songs and more. You are just one click away...

Login with Facebook Login with Google