Log in

One click and you are in

Login with Facebook Login with Google

Why sign up and log in

Guitar Tabs Explorer
Emiliana Torrini tabs for Summerbreeze

Guitar tabs with lyrics

Emiliana Torrini - Summerbreeze

>From The LP "Love in the time of science"

TAB by Seb PABLO (fake.dkr@laposte.net)

-----------------------------------------------------
-----------------------------------------------------

fig 1

|-------0-----|-------------|-------------|--------
|-------------|-------6-----|---------6---|-5-------
|-----5---5---|-----5---5---|-----2/3-----|-3-3------
|---5-------5-|---7-------7-|---0---------|-5--5------
|-3-----------|-0-----------|-------------|(3)---------
|-------------|-------------|-3-----------|-------------
fig 2

|-------0-----|-------------|-------------|-------------|------- -----
|-------------|-------6-----|-------8-----|-------5-----|-8-6--- ------
|-----5---5---|-----5---5---|-----9---9---|-----6---6---|------ 5-------
|---5-------5-|---7-------7-|---9-------9-|---7-------7-|------- ----(3)-
|-3-----------|-0-----------|/7-----------|-0-----------|------- ---------
|-------------|-------------|-------------|-------------|------- ----------


fig 3

|-------------|-3-----------|---------3---|--------
|---------4---|---4-------4-|-------------|-6-------
|-----3-----3-|-----3---3---|-----2/3-----|-3--------
|---6---6-----|-------6-----|---0---------|-5---------
|-------------|-------------|-------------|(3)---------
|-4-----------|-------------|-3-----------|-------------

fig 4

|-------------|-------------|--------
|-------4-----|---------6---|---------
|-----3---3---|-----2/3-----|----------
|---6-------6-|---0---------|-----------
|-------------|-------------|------------
|-4-----------|-3--------(3)|*------------
                    (*) only played 2nd Time


-----------------------------------------------------
-----------------------------------------------------


intro
[fig1]


[fig 1]
It might have been a while
....
[fig 2]
In tending loving arms
Might ....
[fig 3]

-----------------------------------------------------

[fig 1]
Well summerbreeze ...
And ...
[fig 2]
And something in ...
[fig 4]
Don't tell me ...

-----------------------------------------------------

[fig 1]
It might have been a while
...
[fig 2]
When people like us
Meant ...
[fig 3]

[fig 1]
Summerbreeze ..
And ...
[fig 2]
Something ..
[fig 4]
Don't tell me that it ain't there

Almost there ...

Sign in to get your own page with links to favourite songs and more. You are just one click away...

Login with Facebook Login with Google