Log in

One click and you are in

Login with Facebook Login with Google

Why sign up and log in

Guitar Tabs Explorer
Torn By Self tabs for Drowned

Guitar tabs with lyrics

tabbed by Liz Weller
This is a very short song, and it's very easy to play, you just have to=20
memorize the chords and fingering.Oh,yeah, this is my first tab, so if I'm=20
wrong, correct it please.

"drowned"
by Torn By Self
from "Reef"

this is an accoustic song, by the way, and timing is difficult, as there are=
=20
no lyrics to it, other than some Icelandic that comes after the song=20
ends(even though they're not from Iceland, they're from Ohio.)

(intro)
----------------------------------------0-----
----------------3-----------------4-----0-----
--------------0---------------------4---0---0-
-----2------2------------4---4----------2-----
---2------2------------2---2---2--------2-----
-0------0------------0------------------0-----

(verse)

---0--3--x--0-----------------------------
---0--3--1--0-----------------------------
---0--2--2--0-----------------------------       (X2)
---2--0--0--2-----------------------------
---2--0--3--2-----------------------------
---0--0--0--0-----------------------------

(verse 2)

--x--x--0--x--x--0--x--x--x--0--x------------------
--x--1--0--x--1--0--x--5--1--0--x------------------
--2--2--0--2--2--0--2--2--2--0--2------------------
--0--0--2--0--0--2--0--0--0--2--0------------------
--0--3--2--0--3--2--0--3--3--2--0------------------
--0--0--0--0--0--0--0--0--0--0--0------------------
(verse)

---0--3--x--0-----------------------------
---0--3--1--0-----------------------------
---0--2--2--0-----------------------------       (X2)
---2--0--0--2-----------------------------
---2--0--3--2-----------------------------
---0--0--0--0-----------------------------

(end solo)

---------------------------
-------3-------3--3-----------
-----0-------0----------5---
---2-------2----------2----5---
-2-------3-------------------
--------------------0----------
y=F0ar einl=E6gur  (translation- sincerely yours) >-|{;
this song made me wa= nt to=20 cry when I heard it, but I'm a very touchy girl.


and that's it.I really suggest downloading this song.The only place I've=20
found it is on the Winmx program, though, so download that and check that=20
out.Not sure if it's exact, but, n=E6rri lagi(Icelandic for close enough).

Almost there ...

Sign in to get your own page with links to favourite songs and more. You are just one click away...

Login with Facebook Login with Google