Log in

One click and you are in

Login with Facebook Login with Google

Why sign up and log in

Guitar Tabs Explorer
Tool bass tabs for Pneuma

Bass tabs with lyrics

Tuning: Drop D (D A D G)

Key: Dm

Difficulty: Intermediate
Intro:
Main bass riff (begins @01:18)

G|--14-14----15----14----12----14-14----10----12----9----7-7--|
D|--12-12----12----12----12----12-12----12----12----12---0-0--|
A|------------------------------------------------------------|
D|------------------------------------------------------------|


Main riff variation (@1:53) (first comes in after x4 of the above)

G|--14-14----15----17----15----14----15-15----12--|
D|--12-12----12----15----15----15----15-15----10--|
A|------------------------------------------------|
D|------------------------------------------------|
 This continues straight back into the main riff


Verse:
@3:18 (delay turned off)

G|------------------------------------------------|
D|------------------------------------------------|
A|--0------------0----3-------0-------------------|
D|-------3-------------------------0--------------|


Verse2:
@6:23 Played during synth part (delay turned off)

G|----------------------------------------------------7/9--|
D|--7--------------0-----------7--------------0------------|
A|-------8----8---------------------8----8-----------------|
D|---------------------------------------------------------|

@7:43 Same riff, just moves down an octave
G|------------------------------------------------------|
D|------------------------------------------------------|
A|--0--------------------------0------------------------|
D|-------3----3----0----------------3----3----0---------|


Bridge:
@09:35 (delay turned off)

G|-------------------------------------------------------------------------------|
D|-------------------------------------------------------------------------------| Repeats x3 then goes
A|---------3h5-------------3h5---------3h5-------------3h5-------------3p0--3h5--| back into main riff
D|--0---0-------0---0---0-------0---0-------0---0---0-------3---3-3h5------------|


This should cover every bass part of the song.
Haven't tabbed the whole song as played as it's a 12 minute song and most parts just repeat.


************************************

| / Slide up
| h Hammer-on
| p Pull-off

************************************

Almost there ...

Sign in to get your own page with links to favourite songs and more. You are just one click away...

Login with Facebook Login with Google