Log in

One click and you are in

Login with Facebook Login with Google

Why sign up and log in

Guitar Tabs Explorer
Tool tabs for Hush

Guitar tabs

Hush by Tool
Album: Opiate


Tuning: Dropped-D
Intro (before FU*K YOU!!)
-------------------------
-------------------------
-7----18-18-X-16-16------
-7----18-18-X-16-16------
-5----16-16-X-14-14------
-------------------------


Main riff (played a few times, muted during verse)
----------------------------
----------------------------
-2-4-4-4-4--XX------------5-
-2-4-4-4-4--XX--2-3-2-0-0-5-
-0-2-2-2-2--XX--2-3-2-0-0-3-
----------------2-3-2-0-0---


Chorus
-------------------------
-------------------------
-4-4-4-4-4-4-4-2-2-2-2-2-
-4-4-4-4-4-4-4-2-2-2-2-2-
-2-2-2-2-2-2-2-0-0-0-0-0-
-------------------------

This other part
---------------
---------------
--4--2---------
--4--2--2-3----
--2--0--2-3----
--------2-3----

Another part right after that
--------------------------------
--------------------------------
--------------------------5-5-5-
--3-2-2-3-2-2-3-2-2-3-2-2-5-5-5-
--3-2-2-3-2-2-3-2-2-3-2-2-3-3-3-
--3-2-2-3-2-2-3-2-2-3-2-2-------

Almost there ...

Sign in to get your own page with links to favourite songs and more. You are just one click away...

Login with Facebook Login with Google