Log in

One click and you are in

Login with Facebook Login with Google

Why sign up and log in

Guitar Tabs Explorer
Tones And I bass tabs for Dance monkey

Bass tabs

Tuning: Standard (E A D G)

Difficulty: Novice


Verse 1:

They say...
G|---------------------------------------------------------------------------|
D|---------------------------------------------------------------------------|
A|-----------5--5-5--5-7--7-7--7-4--4-4--4-----------------------------------|
E|-2--2-2--2-----------------------------------------------------------------|

You know...
G|---------------------------------------------------------------------------|
D|---------------------------------------------------------------------------|
A|-----------5--5-5--5-7~--------4~------------------------------------------|
E|-2--2-2--2-----------------------------------------------------------------|


Pre-Chorus:

Ooh, I see you...
G|---------------------------------------------------------------------------|
D|---------------------------------------------------------------------------|
A|-----------5--5-5--5-7--7-7--7-4--4-4--4-----------------------------------|
E|-2--2-2--2-----------------------------------------------------------------|

You, you make me....
G|---------------------------------------------------------------------------|
D|---------------------------------------------------------------------------|
A|-----------5--5-5--5-7--7-7--7-4~------------------------------------------|
E|-2--2-2--2-----------------------------------------------------------------|


Chorus:

So they say...
G|---------------------------------------------------------------------------|
D|---------------------------------------------------------------------------|
A|-----------------5-5-5-5-5-5-5-5-7-7-7-7-7-7-7-7-4-4-4-4-4-4-4-4-----------|
E|-2-2-2-2-2-2-2-2-----------------------------------------------------------|

They say...
G|---------------------------------------------------------------------------|
D|---------------------------------------------------------------------------|
A|-----------------5-5-5-5-5-5-5-5-7-7-7-7-7-7-7-7-4-4-4-4-4-4-4-4-----------|
E|-2-2-2-2-2-2-2-2-----------------------------------------------------------|


Verse 2:

I said...
G|---------------------------------------------------------------------------|
D|---------------------------------------------------------------------------|
A|-----------5--5-5--5-7--7-7--7-4--4-4--4-----------------------------------|
E|-2--2-2--2-----------------------------------------------------------------|

Just like...
G|---------------------------------------------------------------------------|
D|---------------------------------------------------------------------------|
A|-----------5--5-5--5-7~--------4~------------------------------------------|
E|-2--2-2--2-----------------------------------------------------------------|


Pre-Chorus:

Ooh, I see you...
G|---------------------------------------------------------------------------|
D|---------------------------------------------------------------------------|
A|-----------5--5-5--5-7--7-7--7-4--4-4--4-----------------------------------|
E|-2--2-2--2-----------------------------------------------------------------|

You, you make me....
G|---------------------------------------------------------------------------|
D|---------------------------------------------------------------------------|
A|-----------5--5-5--5-7--7-7--7-4~------------------------------------------|
E|-2--2-2--2-----------------------------------------------------------------|


Chorus:

So they say...
G|---------------------------------------------------------------------------|
D|---------------------------------------------------------------------------|
A|-----------------5-5-5-5-5-5-5-5-7-7-7-7-7-7-7-7-4-4-4-4-4-4-4-4-----------|
E|-2-2-2-2-2-2-2-2-----------------------------------------------------------| (4x)

OR


[Chorus}

So they say...
G|---------------------------------------------------------------------------|
D|---------------------------------------------------------------------------|
A|-----------------5-5-5-5-5-5-5-5-7-7-7-7-7-7-7-7-4-4-4-4-4-4-4-4-----------|
E|-2-2-2-2-2-2-2-2-----------------------------------------------------------| (2x)

They say... (second time)
G|---------------------------------------------------------------------------|
D|---------------------------------------------------------------------------|
A|-----------5--5-5--5-7--7-7--7-4--4-4--4-----------------------------------|
E|-2--2-2--2-----------------------------------------------------------------| (2x)

OR


Chorus:

So they say...
G|---------------------------------------------------------------------------|
D|---------------------------------------------------------------------------|
A|-----------5--5-5--5-7--7-7--7-4--4-4--4-----------------------------------|
E|-2--2-2--2-----------------------------------------------------------------| (4x)


Bridge:

Ooh...
G|---------------------------------------------------------------------------|
D|---------------------------------------------------------------------------|
A|-9~--------5~--------7~--------4~------------------------------------------|
E|---------------------------------------------------------------------------| (2x)


Chorus:

So they say...
G|---------------------------------------------------------------------------|
D|---------------------------------------------------------------------------|
A|-----------------5-5-5-5-5-5-5-5-7-7-7-7-7-7-7-7-4-4-4-4-4-4-4-4-----------|
E|-2-2-2-2-2-2-2-2-----------------------------------------------------------| (3x)

And when you're
G|---------------------------------------------------------------------------|
D|---------------------------------------------------------------------------|
A|-----------------5-5-5-5-5-5-5-5-7-7-7-7-7-7-7-7-4~------------------------|
E|-2-2-2-2-2-2-2-2-----------------------------------------------------------|

OR


[Chorus}

So they say...
G|---------------------------------------------------------------------------|
D|---------------------------------------------------------------------------|
A|-----------------5-5-5-5-5-5-5-5-7-7-7-7-7-7-7-7-4-4-4-4-4-4-4-4-----------|
E|-2-2-2-2-2-2-2-2-----------------------------------------------------------| (2x)

They say... (second time)
G|---------------------------------------------------------------------------|
D|---------------------------------------------------------------------------|
A|-----------5--5-5--5-7--7-7--7-4--4-4--4-----------------------------------|
E|-2--2-2--2-----------------------------------------------------------------|

And when you're...
G|---------------------------------------------------------------------------|
D|---------------------------------------------------------------------------|
A|-----------5--5-5--5-7--7-7--7-4~------------------------------------------|
E|-2--2-2--2-----------------------------------------------------------------|

OR


Chorus:

So they say...
G|---------------------------------------------------------------------------|
D|---------------------------------------------------------------------------|
A|-----------5--5-5--5-7--7-7--7-4--4-4--4-----------------------------------|
E|-2--2-2--2-----------------------------------------------------------------| (3x)

And when you're...
G|---------------------------------------------------------------------------|
D|---------------------------------------------------------------------------|
A|-----------5--5-5--5-7--7-7--7-4~------------------------------------------|
E|-2--2-2--2-----------------------------------------------------------------|


************************************

| ~  Vibrato

************************************

Other versions of Dance Monkey

Dance monkey (Ver. 2)Bass tabs

Almost there ...

Sign in to get your own page with links to favourite songs and more. You are just one click away...

Login with Facebook Login with Google