Log in

One click and you are in

Login with Facebook Login with Google

Why sign up and log in

Guitar Tabs Explorer
Chris Tomlin bass tabs for I will follow you

Bass tabs

I will follow you - by Chris Tomlin
96BPM / Key = A (original is in G)

INTRO
G |--------------------------------|---------|
D |--------4-----------------------|---------|
A |-----------555-5---------777----|--4-5-7--|
E |--222------------555-5----------|---------| DROP OUT!

VS 1 (**ENTER, "I will trust in you alone...)
G |----------6---|--------------------------|
D**|--7--7h----6--|-------7-444--6h7---------|
E |--------------|--------------------------|
A |--------------|--555----------------777--|

G |---------6----|---------|------|
D |--7--7h----6--|---------|------|
E |--------------|---------|--5\--|
A |--------------|--5--7---|------|


CHORUS "Where you go..."
G |---------------------------------|--------|
D |---------------------------------|--------|
A |-----------555-5----------777-7--|--4-5-7-|
E |--222-2-----------555-5----------|--------| X3

VS 2
G |-------------------------|
D |--------444-------777-6--|
A |--555-------777----------|
E |-------------------------| X2

G |------------|------|
D |------------|--7\--|
A |--555--777--|------|
E |------------|------|

CHORUS
G |---------------------------------|---------|
D |---------------------------------|---------|
E |--222-2----------555-5-----------|---------|
A |-----------555-5----------777-7--|--4-5-7--| X2


G |------------------------------|-------|
E |--222-2-----------------------|-------|
A |----------555-5----------777--|--5-7--|
D |------------------777-7-------|-------| DROP OUT!


BRIDGE - NO Bass!


CHORUS (Bass & Drums)
G |--------------|------|----------|
D |--4-----7-----|------|----------|
A |-----5-----7--|--7\--|--4--4h6--|
E |--------------|------|----------|

G |----------------|------|
D |-------------9--|------|
A |--5--5h12----7--|------|
E |----------------|--7\--|


CHORUS (Everyone)
E |--222-2----------555-5-----------|---------|
A |-----------555-5----------777-7--|--4-5-7--|
D |---------------------------------|---------|
G |---------------------------------|---------| X3

G |----------------------|
D |----------------------|
A |---------------555----|
E |--222---4h5------555--|

/ slide up, \ slide down, h hammer-on, p pull-off, ~ vibrato, + harmonic, x Mute note

Good luck,
Jefro

Almost there ...

Sign in to get your own page with links to favourite songs and more. You are just one click away...

Login with Facebook Login with Google