Log in

One click and you are in

Login with Facebook Login with Google

Why sign up and log in

Guitar Tabs Explorer
Chris Tomlin bass tabs for Forever

Bass tabs with lyrics

Tuning: Standard (E A D G)


Intro:

G|-----------------|-----------------|-----------------|-----------------|
D|-----------------|-----------------|-----------------|-----------------|
A|-----------------|-----------------|-6-6-6-6-6-6-6-6-|-6-6-6-6-6-6-6-6-|
E|-6-6-6-6-6-6-6-6-|-6-6-6-6-6-6-6-6-|-----------------|-----------------|
G|-------------------------|-----------------|-----------------|-----------------|
D|-------------------------|-----------------|-----------------|-8-8-8-8-8-8-8-8-|
A|-10-10-10-10-10-10-10-10-|-8-8-8-8-8-8-8-8-|-----------------|-----------------|
E|-------------------------|-----------------|-6-6-6-6-6-6-6-6-|-----------------|

G|-----------------|-----------------|-----------------|-----------------|
D|-----------------|-8-8-8-8-8-8-8-8-|-----------------|-----------------|
A|-----------------|-----------------|-6-6-6-6-6-6-6-6-|-6-6-6-6-6-6-6-6-|
E|-6-6-6-6-6-6-6-6-|-----------------|-----------------|-----------------|

G|-------------------------|-----------------|-----------------|-----------------|
D|-------------------------|-----------------|-----------------|-----------------|
A|-10-10-10-10-10-10-10-10-|-8-8-8-8-8-8-8-8-|-----------------|-----------------|
E|-------------------------|-----------------|-6-6-6-6-6-6-6-6-|-6-6-6-6-6-6-6-6-|

G|-----------------|-----------------|-----------------|-----------------|
D|-----------------|-8-8-8-8-8-8-8-8-|-----------------|-----------------|
A|-----------------|-----------------|-6-6-6-6-6-6-6-6-|-6-6-6-6-6-6-6-6-|
E|-6-6-6-6-6-6-6-6-|-----------------|-----------------|-----------------|

G|-------------------------|-----------------|-----------------|-----------------|
D|-------------------------|-----------------|-----------------|-----------------|
A|-10-10-10-10-10-10-10-10-|-8-8-8-8-8-8-8-8-|-----------------|-----------------|
E|-------------------------|-----------------|-6-6-6-6-6-6-6-6-|-6-6-6-6-6-6-6-6-|


Verse 1:

G|-----------------|-----------------|-----------------|-----------------|
D|-----------------|-8-8-8-8-8-8-8-8-|-----------------|-----------------|
A|-----------------|-----------------|-----------------|-----------------|
E|-6-6-6-6-6-6-6-6-|-----------------|-6-6-6-6-6-6-6-6-|-6-6-6-6-6-6-6-6-|
  Give thanks to | and King His  |  love endures forever
 the Lord our God |

G|-----------------|-----------------|-----------------|-----------------|
D|-----------------|-----------------|-----------------|-----------------|
A|-6-6-6-6-6-6-6-6-|-6-6-6-6-6-6-6-6-|-6-6-6-6-6-6-6-6-|-----------------|
E|-----------------|-----------------|-----------------|-6-6-6-6-6-6-6-6-|
For He is good, He is above all things His love endures| forever

G|-----------------|-----------------|-----------------|-----------------|
D|-----------------|-----------------|-----------------|-----------------|
A|-8-8-8-8-8-8-8-8-|-8-8-8-8-8-8-8-8-|-6-6-6-6-6-6-6-6-|-6-6-6-6-6-6-6-6-|
E|-----------------|-----------------|-----------------|-----------------|
  Sing praise,            sing praise


Verse 2:

G|---------------------|-------------------|-----------------|-----------------|
D|---------------------|-------------------|-8-8-8-8-8-8-8-8-|-8-8-8-8-8-8-8-8-|
A|---------------------|-------------------|-----------------|-----------------|
E|---6-6-6-6-6-6-6-6---|--6-6-6-6-6-6-6-6--|-----------------|-----------------|
  With a mighty hand and outstretched arm | His love endures forever

G|-----------------|-----------------|-----------------|-----------------|
D|-----------------|-----------------|-----------------|-----------------|
A|-6-6-6-6-6-6-6-6-|-6-6-6-6-6-6-6-6-|-6-6-6-6-6-6-6-6-|-----------------|
E|-----------------|-----------------|-----------------|-6-6-6-6-6-6-6-6-|
  For the life that's been reborn His love endures  | forever


Pre-Chorus:

G|-----------------|-----------------|-------------------------|-------------------------|
D|-----------------|-----------------|-------------------------|-------------------------|
A|-8-8-8-8-8-8-8-8-|-8-8-8-8-8-8-8-8-|-10-10-10-10-10-10-10-10-|-10-10-10-10-10-10-10-10-|
E|-----------------|-----------------|-------------------------|-------------------------|
 Sing praise,            | sing praise

G|-----------------|-----------------|-----------------|-----------------|
D|-----------------|-----------------|-----------------|-----------------|
A|-8-8-8-8-8-8-8-8-|-8-8-8-8-8-8-8-8-|-6-6-6-6-6-6-6-6-|-6-6-6-6-6-6-6-6-|
E|-----------------|-----------------|-----------------|-----------------|
 Sing praise,            | sing praise


Chorus:

G|-----------------|-----------------|-----------------|-----------------|
D|-----------------|-----------------|-----------------|-----------------|
A|-----------------|-----------------|-----------------|-----------------|
E|-6-6-6-6-6-6-6-6-|-6-6-6-6-6-6-6-6-|-3-3-3-3-3-3-3-3-|-3-3-3-3-3-3-3-3-|
  Forever God is faithful      | forever God is strong

G|-----------------|-----------------|-----------------|-----------------|
D|-----------------|-----------------|-----------------|-----------------|
A|-----------------|-----------------|-6-6-6-6-6-6-6-6-|-6-6-6-6-6-6-6-6-|
E|-1-1-1-1-1-1-1-1-|-1-1-1-1-1-1-1-1-|-----------------|-----------------|
  Forever God is with us      | forever, forever


Verse 3:

G|-----------------|-----------------|-----------------|-----------------|
D|-----------------|-----------------|-----------------|-----------------|
A|-----------------|-----------------|-----------------|-----------------|
E|-6-6-6-6-6-6-6-6-|-6-6-6-6-6-6-6-6-|-6-6-6-6-6-6-6-6-|-6-6-6-6-6-6-6-6-|
  From the rising to the setting sun His love endures forever

G|-----------------|-----------------|-------------------|-----------------|
D|-----------------|-----------------|-------------------|-----------------|
A|-6-6-6-6-6-6-6-6-|-6-6-6-6-6-6-6-6-|-6-6-6-6-6-6-6-6---|-----------------|
E|-----------------|-----------------|-------------------|-6-6-6-6-6-6-6-6-|
  By the grace of God we will carry on His love endures | forever


Pre-Chorus:


Chorus: x2

G|-----------------|-----------------|-----------------|-----------------|
D|-----------------|-----------------|-----------------|-----------------|
A|-----------------|-----------------|-----------------|-----------------|
E|-6-6-6-6-6-6-6-6-|-6-6-6-6-6-6-6-6-|-3-3-3-3-3-3-3-3-|-3-3-3-3-3-3-3-3-|
  Forever God is faithful      | forever God is strong

G|-----------------|-----------------|-----------------|-----------------|
D|-----------------|-----------------|-----------------|-----------------|
A|-----------------|-----------------|-6-6-6-6-6-6-6-6-|-6-6-6-6-6-6-6-6-|
E|-1-1-1-1-1-1-1-1-|-1-1-1-1-1-1-1-1-|-----------------|-----------------|
  Forever God is with us      | forever, forever


Bridge: x2

G|-----------------|-----------------|-----------------|-----------------|
D|-----------------|-----------------|-----------------|-----------------|
A|-----------------|-----------------|-6-6-6-6-6-6-6-6-|-6-6-6-6-6-6-6-6-|
E|-6-6-6-6-6-6-6-6-|-6-6-6-6-6-6-6-6-|-----------------|-----------------|
  Oh Oh Oh Oh            | Oh Oh Oh Oh

G|-------------------------|-----------------|-----------------|-----------------|
D|-------------------------|-----------------|-----------------|-----------------|
A|-10-10-10-10-10-10-10-10-|-8-8-8-8-8-8-8-8-|-----------------|-----------------|
E|-------------------------|-----------------|-6-6-6-6-6-6-6-6-|-6-6-6-6-6-6-6-6-|
  Oh Oh Oh Oh                | Oh Oh Oh Oh


Breakdown:

G|----------------|-----------------|----------------|-----------------|
D|----------------|-----------------|----------------|-----------------|
A|-8--------------|-10--------------|-8--------------|-10--------------|
E|----------------|-----------------|----------------|-----------------|
  Sing praise,           | sing praise

G|-----------------|-----------------|-----------------|-----------------|
D|-----------------|-----------------|-----------------|-----------------|
A|-8-8-8-8-8-8-8-8-|-8-8-8-8-8-8-8-8-|-6-6-6-6-6-6-6-6-|-6-6-6-6-6-6-6-6-|
E|-----------------|-----------------|-----------------|-----------------|
  Sing praise,           | sing praise

G|-----------------|-----------------|-----------------|-----------------|
D|-----------------|-----------------|-----------------|-----------------|
A|-8-8-8-8-8-8-8-8-|-8-8-8-8-8-8-8-8-|-6-6-6-6-6-6-6-6-|-6-6-6-6-6-6-6-6-|
E|-----------------|-----------------|-----------------|-----------------|
  Sing praise,           | sing praise


Chorus: x2

G|-----------------|-----------------|-----------------|-----------------|
D|-----------------|-----------------|-----------------|-----------------|
A|-----------------|-----------------|-----------------|-----------------|
E|-6-6-6-6-6-6-6-6-|-6-6-6-6-6-6-6-6-|-3-3-3-3-3-3-3-3-|-3-3-3-3-3-3-3-3-|
  Forever God is faithful      | forever God is strong

G|-----------------|-----------------|-----------------|-----------------|
D|-----------------|-----------------|-----------------|-----------------|
A|-----------------|-----------------|-6-6-6-6-6-6-6-6-|-6-6-6-6-6-6-6-6-|
E|-1-1-1-1-1-1-1-1-|-1-1-1-1-1-1-1-1-|-----------------|-----------------|
  Forever God is with us      | forever, forever


Outro:

G|-----------------|-----------------|-----------------|--------------------|--------------------|
D|-----------------|-----------------|-----------------|--------------------|--------------------|
A|-----------------|-6---------------|-10--------------|-8------------------|-6------------------|
E|-6---------------|-----------------|-----------------|--------------------|--------------------|

Almost there ...

Sign in to get your own page with links to favourite songs and more. You are just one click away...

Login with Facebook Login with Google